Guitar Tabs
song title    band name

Join Us Today!

Don't strum alone...
be a part of the largest online Christian music community. Browse thousands of guitar tabs and chat w/ musicians like yourself.


It's Free!

This tab has been rated a 1.67 out of 5 for accuracy. (3 votes)Sorry, but you must be logged in to rate this tab.
Click here to log-in, or you can click here to register.
(Registration is free)

All songs owned by corresponding publishing company. If you make copies of any song on this website, be sure to report your usage to CCLI.
Submitted by: hjbarber

Song: Look Yourself (INtro)
Artist: Apologetix
Written by: M. Mathers (eminem), J Bass, and L. Resto
Apologetix lyrics by:J. Jackson and Keith Haynie
cd: Adam Up


|------------|-----------------|----------------------------------------
|------------|-----------------|----------------------------------------
|---------1--|--------------1--|------2---2---2---2-------------2----2--
|------------|-----------------|----------------------------------------
|-4---4---4--|--4---4---4---4--|--4---4---4---4---4---4----4----4----4--


This repeats the whole song on the guitar. There are three musical components 
to this song: drums, this baseline, and the lyrics. oh yeah, and a 
synthesizer.
hope it' helpful.

|------------|-----------------|--------------------------------------------

Comments about this tab

HawKNelsoNrules - 2006-02-12

I think its actually something like this -

E/-------------------------------------
B/-------------------------------------
G/-------------------------------------
D/--------7--------7--------8--------8-
A/--5--5--5--5--5--5--5--5--5--5--5--5-
E/-------------------------------------

you will need to figure the rythem and all of that out but i think these are right, other than that good job.


fenderbender123 - 2006-03-26

wassup? :-)


Guitar4GOD rio - 2007-02-01

...???


Add a comment/correction

Complimentary Christian Ringtones
Dadamobile and CGR have teamed up to bring your favorite Christian artists right to your phone. Sign up today and get 10 complementary ringtones!
Tab Country
Did you know CGR has a sister site w/ country guitar tabs? Well we do! Its called Tab Country. It has a great archive with a lot of country tabs.
Rockin Tabs
Are you looking for a site that has rock guitar tabs? Then Rockintabs.com is the place for you. It is a budding site with many rock guitar tabs. Submit your tab today.
Tab Gallery
Tab Gallery has a compilation of christian, rock, and country tabs all in one place. Come visit us.