Guitar Tabs
song title    band name

Join Us Today!

Don't strum alone...
be a part of the largest online Christian music community. Browse thousands of guitar tabs and chat w/ musicians like yourself.


It's Free!

This tab has been rated a 3.33 out of 5 for accuracy. (3 votes)Sorry, but you must be logged in to rate this tab.
Click here to log-in, or you can click here to register.
(Registration is free)

All songs owned by corresponding publishing company. If you make copies of any song on this website, be sure to report your usage to CCLI.
Submitted by: Souldog18CA

Artist: mewithoutYou
Song: January 1979
Album: Catch For Us the Foxes
Name: Jono (souldog19ca@msn.com)

This is a good song and I tabbed it all out by ear. Have fun!

(Intro. and Verse 1)

Gtr. 1
e----------
B----------
G----------
D----------
A----------
E-0--4-----


Gtr. 2

e----------
B----------
G----------
D----------
A----------
E-7--6-----


(Chorus)

Gtr. 1

e-9-----11-------
B-9-----12-------
G----------------
D----------------
A----------------
E----------------


Gtr. 2

*Make sure you add some chorus and delay mods to your effects rig on this part*

e----------------
B-9--11---12-----
G----------------
D----------------
A----------------
E----------------


(Verse 2 and 3)

Gtr. 1

e----------------
B----------------
G----------------
D----------------
A----------------
E-0--4-----------


Gtr. 2

*add some chorus mods to your effects rig on this part*

e-------------------------------------------------
B-12/11--9------------9--11-12--9------------9----
G-----------11--9--8---------------11--9--8-------
D-------------------------------------------------
A-------------------------------------------------
E-------------------------------------------------

(Interlude/Bridge)

Gtr. 2

e-----11---11-11-----11-11-11-----11---11-11-----11-11-11-
B-9-9----9-------9-9----------9-9----9-------9-9----------
G---------------------------------------------------------
D---------------------------------------------------------
A---------------------------------------------------------
E---------------------------------------------------------

e----------------------------------------------------------------------
B-------12-12-12--------12----12-12--------12-12-12--------12----12-12-
G----------------------------------------------------------------------
D-13-13-----------13-13----13--------13-13-----------13-13----13-------
A----------------------------------------------------------------------
E----------------------------------------------------------------------

e-----------------------------------------11-----
B------------------7--------------------------12-
G------------8---8---8/9/8----11---13--13--------
D-11/x-----9---9----------9---x----x-------------
A-------11--------------------9----11------------
E------------------------------------------------


(Ending)

Gtr. 1


e-------4---4----
B-----4---4---4--
G---4---------4--
D-6-----------6--
A----------------
E----------------

Gtr. 2

e----11----11-
B--------9----
G-11----------
D-------------
A-------------
E-------------

Comments about this tab

arkana - 2005-04-06

intro-verse

e----------
B----------
G-8--------
D-9-6------
A-7-6------
D---6------


church-clown40 - 2005-06-06

hey could someone tab Disaster Tourism or atleast the intro. The beginning of that song sounds really cool. thanks.


Shee-o-duss - 2006-11-10

The intro for Disaster toursism is
E-----------2--5--4---0--
A--2---0--------------0--
D----4---4---4--4--4-----
G-------------------------
B-------------------------
e-------------------------


Add a comment/correction

Complimentary Christian Ringtones
Dadamobile and CGR have teamed up to bring your favorite Christian artists right to your phone. Sign up today and get 10 complementary ringtones!
Tab Country
Did you know CGR has a sister site w/ country guitar tabs? Well we do! Its called Tab Country. It has a great archive with a lot of country tabs.
Rockin Tabs
Are you looking for a site that has rock guitar tabs? Then Rockintabs.com is the place for you. It is a budding site with many rock guitar tabs. Submit your tab today.
Tab Gallery
Tab Gallery has a compilation of christian, rock, and country tabs all in one place. Come visit us.