Guitar Tabs
song title    band name

Join Us Today!

Don't strum alone...
be a part of the largest online Christian music community. Browse thousands of guitar tabs and chat w/ musicians like yourself.


It's Free!

This tab has not yet been rated for accuracy.Sorry, but you must be logged in to rate this tab.
Click here to log-in, or you can click here to register.
(Registration is free)

All songs owned by corresponding publishing company. If you make copies of any song on this website, be sure to report your usage to CCLI.
Submitted by: sxepunkpirate

Title: Don't Let the Sun Go Down on Your Anger
Artist: Hangnail



They add another guitar after the first time through this, but without
 a band just add the bottom string the second time thru.

E---------------------------------------------------
B---------------------------------------------------
G---------------------------------------------------
D-7-7-7--11-11--4-4-4--7-7-7--11-11-4-4-4-----------
A-7-7-7--11-11--4-4-4--7-7-7--11-11-4-4-4-----------
D----------------------7-7-7--11-11-4-4-4-----------

E---------------------------------------------------
B---------------------------------------------------
G---------------------------------------------------
D-7-7-7--11-11-4-4-4---7-7-7--11-11-4-4-4-----------
A-7-7-7--11-11-4-4-4---7-7-7--11-11-4-4-4-----------
D-7-7-7--11-11-4-4-4---7-7-7--11-11-4-4-4-----------

 palm muted
E---------------------------------------------------
B---------------------------------------------------
G---------------------------------------------------
D-7-7-7--11-11--4-4-4---7-7-7--11-11--4-4-4---------
A-7-7-7--11-11--4-4-4---7-7-7--11-11--4-4-4---------
D-7-7-7--11-11--4-4-4---7-7-7--11-11--4-4-4---------

                       (these E(2) chords are not palm muted)
E---------------------------------------------------
B---------------------------------------------------
G---------------------------------------------------
D-7-7-7--11-11--4-4-4---7-7-7--2-2-2-2-2-2-2-2------
A-7-7-7--11-11--4-4-4---7-7-7--2-2-2-2-2-2-2-2------
D-7-7-7--11-11--4-4-4---7-7-7--2-2-2-2-2-2-2-2------

E---------------------------------------------------
B---------------------------------------------------
G---------------------------------------------------
D-9-9-9-9-9-9-9h11-12-12-12-12-12-12-12-12----------
A-9-9-9-9-9-9-9h11-12-12-12-12-12-12-12-12----------
D-9-9-9-9-9-9-9h11-12-12-12-12-12-12-12-12----------

 (7's are palm muted)
E---------------------------------------------------
B---------------------------------------------------
G---------------------------------------------------
D-7-7-7-7-7-7-7-7-7-7-7-2-2-4-4-4-4-4-4-4-4---------
A-7-7-7-7-7-7-7-7-7-7-7-2-2-4-4-4-4-4-4-4-4---------
D-7-7-7-7-7-7-7-7-7-7-7-2-2-4-4-4-4-4-4-4-4---------

E--------------------------------------------
B--------------------------------------------
G--------------------------------------------
D-9-9-9-9-9-9-9h11-12-12-12-12-12-12-12-12---
A-9-9-9-9-9-9-9h11-12-12-12-12-12-12-12-12---
D-9-9-9-9-9-9-9h11-12-12-12-12-12-12-12-12---

 (7's are palm muted)
E---------------------------------------------------
B---------------------------------------------------
G---------------------------------------------------
D-7-7-7-7-7-7-7-7-7-7-7-2-2-4-4-4-4-4-4-4-4---------
A-7-7-7-7-7-7-7-7-7-7-7-2-2-4-4-4-4-4-4-4-4---------
D-7-7-7-7-7-7-7-7-7-7-7-2-2-4-4-4-4-4-4-4-4---------
(7's are palm muted)
E---------------------------------------------------
B---------------------------------------------------
G---------9-9-9-9-6-6-6-6-7-7-7-7-------------------
D-7-7-7-7-9-9-9-9-6-6-6-6-7-7-7-7-------------------
A-7-7-7-7-7-7-7-7-4-4-4-4-5-5-5-5-------------------
D-7-7-7-7-------------------------------------------(X4)

E---------------------------------------------------
B---------------------------------------------------
G---------------------------------------------------
D-7-7-7-11-11-4-4-4------7-7-7-11-11----------------
A-7-7-7-11-11-4-4-4------7-7-7-11-11----------------
D-7-7-7-11-11-4-4-4-(X3)-7-7-7-11-11----------------

Then they go a capella (no instruments) only drums that leads into:

Chorus again, only playin each chord twice (X2)
During that the second (lead) guitar takes this easy solo.

E-9-7-9-10-12-10-9-7-9-4-5-7--(Repeat)
B-----------------------------
G-----------------------------
D-----------------------------
A-----------------------------
D-----------------------------

Then again, but the last chord is only struck once.

Comments about this tab

No comments/corrections found. Add your own

Complimentary Christian Ringtones
Dadamobile and CGR have teamed up to bring your favorite Christian artists right to your phone. Sign up today and get 10 complementary ringtones!
Tab Country
Did you know CGR has a sister site w/ country guitar tabs? Well we do! Its called Tab Country. It has a great archive with a lot of country tabs.
Rockin Tabs
Are you looking for a site that has rock guitar tabs? Then Rockintabs.com is the place for you. It is a budding site with many rock guitar tabs. Submit your tab today.
Tab Gallery
Tab Gallery has a compilation of christian, rock, and country tabs all in one place. Come visit us.