Guitar Tabs
song title    band name

Join Us Today!

Don't strum alone...
be a part of the largest online Christian music community. Browse thousands of guitar tabs and chat w/ musicians like yourself.


It's Free!

This tab has been rated a 3.75 out of 5 for accuracy. (4 votes)Sorry, but you must be logged in to rate this tab.
Click here to log-in, or you can click here to register.
(Registration is free)

All songs owned by corresponding publishing company. If you make copies of any song on this website, be sure to report your usage to CCLI.
Submitted by: JesusFreak413

Switchfoot 
Dare You to Move
(c) 2003-2004 Sony Entertainment inc.
Tabbed by: Robert Hill
Album Version

Intro
Acoustic 1:

----0------0------0------0------0------      
----12-----0------9------0------0------      
----9------9------9------9------9------x2    
----11-----9------9------9------7------      
----0------0---------------------------      
---------------------------------------      

Verse
Acoustic 1:

Welcome to the planet...                     Everyones here.....

----0------0------0------0------0------      -0--------------0-----------------
----12-----0------9------0------0------      -0--------------0-----------------
----9------9------9------9------9------x2    -7--------------9-----------------
----11-----9------9------9------7------      -5--------------7-----------------
----0------0-------------0-------------      ----------------------------------
---------------------------------------      ----------------------------------

Everybodys watching you now... (Drums and Bass come in here)
----0------0------0------0------0------      -0--------------0-----------------
----12-----0------9------0------0------      -0--------------0-----------------
----9------9------9------9------9------x2    -7--------------9-----------------
----11-----9------9------9------7------      -5--------------7-----------------
----0------0-------------0-------------      ----------------------------------
---------------------------------------      ----------------------------------

Chorus
Electric 1 (Distortion)/Acoustic 1:  
NOTE- Acoustic strums it, Electric does power chords
     
I Dare You to Move... 
        Hold
--0--0--0----0-0--0--0--0---------
--0--0--0----0-0--0--0--0---------
--9--4--2----4-9--4--2--4---------
--9--4--2----4-9--4--2--4---------
--7--2--0----2-7--2--0--2---------
--0--0--x----0-0--0--x--0---------

Interlude
Acoustic 1:
Play Throughout Interlude until Chorus

----0------0------0------0------0------      
----12-----0------9------0------0------      
----9------9------9------9------9------x2     
----11-----9------9------9------7------      
----0------0-------------0-------------      
--------------------------------------- 

On the second time the electric 1 does this with effects:
---------------------------------------
----5-0-5h7-5--------------------------
--------------------------------------- x3
---------------------------------------
---------------------------------------
---------------------------------------

Verse 2
Electric 1: Distortion
     
---------------------------------------
---------------------------------------
---------------------------------------
-4/6-6-6xx--4/6-6-6xx--4/6-6\4--STOP---
-2/4-4-4xx--2/4-4-4xx--2/4-4\2---------
---------------------------------------

---------------------------------------
---------------------------------------
---------------------------------------
-4/6-6-6xx--4/6-6-6xx--4/6-6\4--STOP---
-2/4-4-4xx--2/4-4-4xx--2/4-4\2---------
---------------------------------------

---------------------------------------
---------------------------------------
---------------------------------------
---------------------------------------
-4-4-4x--4-4-4x--4/6-6/7--7-<(8 beats)-
-2-0-2x--2-0-2x--2/4-4/5--5------------

---------------------------------------
---------------------------------------
---------------------------------------
-4/6-6-6xx-4/6-6-6xx-4/6-6\4--HOLD-----
-2/4-4-4xx-2/4-6-6xx-2/4-4\2-----------
---------------------------------------

---------------------------------------
---------------------------------------
---------------------------------------
---------------------------------------
-4-4-4---4-4-4---4/6-6/7-7-<(8 beats)--
-2-0-2---2-0-2---2/4-4/5-5-------------

Chorus
Electric 1 (Distortion)/Acoustic 1:  
NOTE- Acoustic strums it, Electric does power chords
      
         Hold
--0--0--0----0-0--0--0--0---------
--0--0--0----0-0--0--0--0---------
--9--4--2----4-9--4--2--4---------
--9--4--2----4-9--4--2--4--HOLD---
--7--2--0----2-7--2--0--2---------
--0--0-------0-0--0-----0---------

Bridge
Rapid Strumming
8 beats

Electric 1:
--------------------------------------
--------------------------------------
--9-----9-----6-----------------------
--9--7--9--7--6--7--4-----------------
--7--7--7--7--4--7--4

Comments about this tab

JesusFreak413 - 2004-10-27

hey this is robert hill (the one who submitted this tab, for some reason they cut off the rest of my tab but heres the rest....


Bridge
Rapid Strumming
8 beats

Electric 1:
--------------------------------------
--------------------------------------
--9-----9-----6-----------------------
--9--7--9--7--6--7--4-----------------
--7--7--7--7--4--7--4 -----5-----5-----5--2-----------------

Acoustic 1:
--0--0--0--0--0--0--2--2--------------
--0--0--0--0--0--0--2--2--------------
--9--2--9--2--6--2--2--4--------------
--9--2--9--2--6--2--4--4--------------
--7--0--7--0--4--0--4--2--------------
--------------------2-----------------


Solo:
Note: While the Electric is playing the Solo the Acoustics does bridge again.

--0--0--0-0-0-0-0-0-0-0-0-0-0-0-0-0--0---------------
-12-12-12\5-5-5/9-9-9\5-5-5/7-7\5-5/10<--(x15)-------
-----------------------------------------------------
-----------------------------------------------------
-----------------------------------------------------
-----------------------------------------------------



--0--0--0-0-0-0-0-0-0-0-0-0-0-0-0-0-11---------------
-12-12-12\5-5-5/9-9-9\5-5-5/7-7\5-5-15b--------------
-----------------------------------------------------
-----------------------------------------------------
-----------------------------------------------------
-----------------------------------------------------



Chorus
Electric 1 (Distortion)/Acoustic 1:
NOTE- Acoustic and Electric strums it rapidly

--0--0--0----0-0--0--0--0-0-0-0---
--0--0--0----0-0--0--0--0-0-0-0---
--9--4--2----4-9--4--2--6-2-4-9---HOLD
--9--4--2----4-9--4--2--6-2-4-9---
--7--2--0----2-7--2--0--4-0-2-7---
--0--0--x----0-0--0--x--0---0-0---


Thats about it if you have any questions you can email me.
If you want the music video way email.
crosseyedkidd@hotmail.com
In Christ,
Robert Hill
Philippians 4:13


JesusFreak413 - 2004-10-27

Robert hill again, for some reason it keeps cutting my stuff off heres the electric guitars bridge...



Electric 1:
--------------------------------------
--------------------------------------
--9-----9-----6-----------------------
--9--7--9--7--6--7--4-----------------
--7--7--7--7--4--7-4-----------------
-----5-----5-----5--2-----------------



curt02k1 - 2004-10-30

this is an average tab of this song.....its different than a lot of them.....its not bad but its not awesome either....i give it a 4....good job


Abnormwarm - 2005-02-23

hey dude, i agree, there are so many different tabs for this song out there.....the one i play is pretty close to this one but the intro is a little different(i think i sounds a bit better) but good job, man
this is a hard song to tab


Switchfoot_ - 2007-01-22

good tab,but not the way they play it.here is the way they play it:

Dare you to move
Switchfoot-The beautiful letdown

Tunning:Half step down

Intro: E E5 E2 E5


E E5 E2 E5
Welcome to the planet
E E5 E2 E5
Welcome to existence
F#m B
Everyone's here, everyone's here
E E5 E2 E5
Everybody's watching you now
E E5 E2 E5
Everybody waits for you now
F#m B
What happens next? What happens next?

E5
I dare you to move
B
I dare you to move
A2
I dare you to lift yourself up off the floor
B E5
I dare you to move
B
I dare you to move
A2
Like today never happened
B (Silence)
Today never happened before

E E5 E2 E5 E E5 E2 E5

C#m A2
Welcome to the fallout
C#m A2
Welcome to resistance
F#m
The tension is here
B
The tension is here
C#m A2
Between who you are and who you could be
C#m A2
Between how it is and how it should be, yeah

E5
I dare you to move
B
I dare you to move
A2
I dare you to lift yourself up off the floor
B E5
I dare you to move
B
I dare you to move
A2
Like today never happened
B
Today never happened
E5 A2
Maybe redemption has stories to tell
E5 A2
Maybe forgiveness is right where you fell
C#m A2
Where can you run to escape from yourself
F#m B
Where you gonna go? Where you gonna go?
E5 A2 E5 B
Salvation is here

E5
I dare you to move
B
I dare you to move
A2
I dare you to lift yourself up off the floor
B E5
I dare you to move
B
I dare you to move
A2
Like today never happened
C#m
Today never happened
A2
Today never happened
B E5
Today never happened before






There it is.the solo is with two guitars(the whole song is)but this is just one guitar.still,very,very nice try!


Add a comment/correction

Complimentary Christian Ringtones
Dadamobile and CGR have teamed up to bring your favorite Christian artists right to your phone. Sign up today and get 10 complementary ringtones!
Tab Country
Did you know CGR has a sister site w/ country guitar tabs? Well we do! Its called Tab Country. It has a great archive with a lot of country tabs.
Rockin Tabs
Are you looking for a site that has rock guitar tabs? Then Rockintabs.com is the place for you. It is a budding site with many rock guitar tabs. Submit your tab today.
Tab Gallery
Tab Gallery has a compilation of christian, rock, and country tabs all in one place. Come visit us.