Guitar Tabs
song title    band name

Join Us Today!

Don't strum alone...
be a part of the largest online Christian music community. Browse thousands of guitar tabs and chat w/ musicians like yourself.


It's Free!

This tab has been rated a 2.00 out of 5 for accuracy. (4 votes)Sorry, but you must be logged in to rate this tab.
Click here to log-in, or you can click here to register.
(Registration is free)

All songs owned by corresponding publishing company. If you make copies of any song on this website, be sure to report your usage to CCLI.
Submitted by: punk_for_christ

Emotion
Subseven

Hey guys.  To answer your demand, here is Emotion by Subseven.  I am about 90% 
sure that it is right, but if not, please correct me!!  Here goes.  

DROP D TUNING!!!!

intro
e |---------------------------------------------------------------------
B|----------------------------------------------------------------------
G|9910109910109910109910109910109910109910109910109910109910109910101212
D|xxxxxxxxxxxxxxxxxxxxxxxxxxxxxxxxxxxxxxxxxxxxxxxxxxxxxxxxxxxxxxxxxxxxxx
A|778 8 778 8 778 8 778 8 778 8 778 8 778 8 778 8 778 8 778 8 778 8 10 10 
D|-----------------------------------------------------------------------

continued
G|10-10--9-9-10-10--9-9-10-10-9
D|xxxxxxxxxxxxxxxxxxxxxxxxx  X2
A|8---8---7-7-8---8---7-7-8---8--7
 
2nd guitar the 2nd time around

e |0--------      on the high note off beat echo thingy.
B|17--------      Iím about 80%sure on this one.

1st  Verse
e |-----------------------------------------------------------------
B|---------------NOTE: after each chord, deaden the strings.-------- 
G|------------------------------------------------------------------
D|0-0-0-0-0-0-0-2-2-2-2-2-2-2-2-0-0-0-0-0-0-0-0-2-2-2-2-3-3-3-3
A|0-0-0-0-0-0-0-2-2-2-2-2-2-2-2-0-0-0-0-0-0-0-0-2-2-2-2-3-3-3-3
D|0-0-0-0-0-0-0-2-2-2-2-2-2-2-2-0-0-0-0-0-0-0-0-2-2-2-2-3-3-3-3

Off Beat notes of verse.   
e |11------    still about 90% sure.
B|17------

Chorus
e |--------------------------------------------------------------
B|---------------------------------------------------------------
G|---------------------------------------------------------------
D|3-3-3-3-2-2-2-2-0-0-0-0-3-3-3-3-3-3-3-3-2-2-2-2-0-0-0-0-3-3-3-3
A|3-3-3-3-2-2-2-2-0-0-0-0-3-3-3-3-3-3-3-3-2-2-2-2-0-0-0-0-3-3-3-3
D|3-3-3-3-2-2-2-2-0-0-0-0-3-3-3-3-3-3-3-3-2-2-2-2-0-0-0-0-3-3-3-3




Guitar line on musical interlude

e |-------------------------------
B|--------8p6/5----------6p5/3 
G|-------------------------------                                              
D|2-2--2---------3-3--3-------   X2
A|2-2--2---------3-3--3-------
D|2-2--2---------3-3--3-------

this is suppose to be a dueling guitar line, but can be played on one.  
To get the full good sound that it is played by Subseven, play it with one 
on the chords and one on the guitar line.  

2nd verse
e |------------------------------
B|------------------------------
G|------------------------------
D|0--------2---------0--------3
A|0--x16--2-x16---0-x16--3 x16    whole thing played 2 times.  
D|0--------2---------0--------3

Bridge
 Same as the first verse.  

Chorus

Dueling guitar line

Chorus with the ending of: 

D|0-0--0----0-0--0----0-0--0----0-0--0--0-0
A|0-0--0----0-0--0----0-0--0----0-0--0--0-0
D|0-0--0----0-0--0----0-0--0----0-0--0--0-0

There you go.  Emotion.  Great song, great CD, great band.  
Tell all your friends.  Man, these guys rock your grandmaís orthopedic shoes 
off!!!  Well any questions, comments, concerns, or headaches, e-mail me at 
mybad34@hotmail.com.  Later.

Comments about this tab

No comments/corrections found. Add your own

Complimentary Christian Ringtones
Dadamobile and CGR have teamed up to bring your favorite Christian artists right to your phone. Sign up today and get 10 complementary ringtones!
Tab Country
Did you know CGR has a sister site w/ country guitar tabs? Well we do! Its called Tab Country. It has a great archive with a lot of country tabs.
Rockin Tabs
Are you looking for a site that has rock guitar tabs? Then Rockintabs.com is the place for you. It is a budding site with many rock guitar tabs. Submit your tab today.
Tab Gallery
Tab Gallery has a compilation of christian, rock, and country tabs all in one place. Come visit us.