Guitar Tabs
song title    band name

Join Us Today!

Don't strum alone...
be a part of the largest online Christian music community. Browse thousands of guitar tabs and chat w/ musicians like yourself.


It's Free!

This tab has been rated a 5.00 out of 5 for accuracy. (2 votes)Sorry, but you must be logged in to rate this tab.
Click here to log-in, or you can click here to register.
(Registration is free)

All songs owned by corresponding publishing company. If you make copies of any song on this website, be sure to report your usage to CCLI.
Submitted by: bullitt

"Estrella" by Brave Saint Saturn (copyright 2002), tabbed by Eric R.

I didn't think the other versions of this tab sounded completely right, so I
fooled around with it and this is what I came up with. It may not be completely
right, but to me it sounds closer to the original.

Capo on 5th fret

Intro/Verses:
e:------3---3---3-------0---0---0----
B:------0---0---0-------1---1---1----
G:------0---0---0-------0---0---0----
D:------0---0---0-----2--------------
A:----3-------------3-----3---3---3--
E:--1-----1---1---1------------------


Prechorus:
e:--------------------------------------------------
B:--------------------------------------------------
G:--------------------------------------------------
D:--3--3--3--2--2--3--3--0--2--2--2--2--2--2--2--2--
A:--3--3--3--3--3--3--3--0--3--3--3--3--3--3--3--3--
E:--1--1--1--0--0--1--1--0--0--0--0--0--0--0--0--0--


End of Prechorus/Chorus:
Am C  F  G
C  F  G
C  F  G
   F  G


Interlude:
e:------0---0---0-------0---0---0-------0---0---0-------0---0---0----
B:------1---1---1-------1---1---1-------0---0---0-------1---1---1----
G:------0---0---0-------2---2---2-------0---0---0-------2---2---2----
D:----2---------------2-----------------2---2---2-----2--------------
A:--3-----3---3---3-0-----0---0---0---2-------------0-----0---0---0--
E:----------------------------------0-----0---0---0------------------

e:------0---0---0-------0---0---0-------0---0---0---1-1-1-1-3-3-3-3--
B:------1---1---1-------0---0---0-------1---1---1---1-1-1-1-3-3-3-3--
G:------0---0---0-------0---0---0-------2---2---2---2-2-2-2-4-4-4-4--
D:----2-----------------2---2---2-----2-------------3-3-3-3-4-4-4-4--
A:--3-----3---3---3---2-------------0-----0---0---0-3-3-3-3-5-5-5-5--
E:------------------0-----0---0---0-----------------1-1-1-1-3-3-3-3--

Play the chorus the same as before and end on C.

Comments about this tab

RebelScum - 2005-01-29

Hey, you did a great job on this tab. It's the closest to the original that I've heard thus far. I was just wondering if there's any special way to play the chords in the chorus? It sounds like it might be more than your basic C, F, and G chords.


bullitt - 2005-03-29

Good call.. now that I listen to it again, that F sounds like it may be more like this:

e:-0-
B:-1-
G:-2-
D:-3-
A:-3-
E:-1-


ramsay__doug - 2005-12-23

I think the G is played

e:-3-
B:-3-
G:-0-
D:-0-
A:-2-
E:-3-


Almost Enough - 2006-07-11

i actually think that it is an F2.

e-1-
B-1-
G-0-
D-3-
A-x-
E-x-


Add a comment/correction

Complimentary Christian Ringtones
Dadamobile and CGR have teamed up to bring your favorite Christian artists right to your phone. Sign up today and get 10 complementary ringtones!
Tab Country
Did you know CGR has a sister site w/ country guitar tabs? Well we do! Its called Tab Country. It has a great archive with a lot of country tabs.
Rockin Tabs
Are you looking for a site that has rock guitar tabs? Then Rockintabs.com is the place for you. It is a budding site with many rock guitar tabs. Submit your tab today.
Tab Gallery
Tab Gallery has a compilation of christian, rock, and country tabs all in one place. Come visit us.