Guitar Tabs
song title    band name

Join Us Today!

Don't strum alone...
be a part of the largest online Christian music community. Browse thousands of guitar tabs and chat w/ musicians like yourself.


It's Free!

This tab has not yet been rated for accuracy.Sorry, but you must be logged in to rate this tab.
Click here to log-in, or you can click here to register.
(Registration is free)

All songs owned by corresponding publishing company. If you make copies of any song on this website, be sure to report your usage to CCLI.
Submitted by: BuddyofSponge

Name: I Never Said That I Was Brave (acoustic)
by: mewithoutYou
CD: [A-->B] Life
Copyright  2002 Tooth and Nail Records

I was going to post this along with Silencer awhile ago, but I got 
lazy and some other guy beat me. This song is wonderful. The only
person that could tab it perfectly is mewithoutYou, but this works.


There are two guitar parts. They both do the same thing the entire song 
except for the chorus and outro. It's easy.

DROP D CAPO 2


verse.
e--------------------------------------------------------
b--------------------------------------------------------
g--------------------------------------------------------
d-0-----0----2-----4-----7----9----4----2------repeat----
a-0-x16-0-x8-0--x4-0-x4--0-x8-0-x8-0-x4-0-x4-------------
d-4-----0----0-----0-----0----0----0----0----------------


For the chorus, guitar one keeps doing that and guitar two does this:

chorus.
e--2--3--0---------------
b--3--3--2---------------
g--2--2--3---------------
d------------------------
a------------------------
d------------------------

You just play D, put your pinky on 3rd fret, let up pinky, let up middle finger, 
and repeat.



For the outro, I'm not really sure about the second guitar part, I guess just play D, let
up the middle finger, and put it back down, but it sounds bad with the CD. Comment if you
figure it out.


The second guitar just plays:

Outro:
e---------------------
b---------------------
g---------------------
d-0----0--------------
a-0-x8-0-x6-----------
d-2----0--------------




Comment if you know of something that sounds better.


-Russell

Comments about this tab

rock-for-GOD - 2006-02-11

thanks it works good


Add a comment/correction

Complimentary Christian Ringtones
Dadamobile and CGR have teamed up to bring your favorite Christian artists right to your phone. Sign up today and get 10 complementary ringtones!
Tab Country
Did you know CGR has a sister site w/ country guitar tabs? Well we do! Its called Tab Country. It has a great archive with a lot of country tabs.
Rockin Tabs
Are you looking for a site that has rock guitar tabs? Then Rockintabs.com is the place for you. It is a budding site with many rock guitar tabs. Submit your tab today.
Tab Gallery
Tab Gallery has a compilation of christian, rock, and country tabs all in one place. Come visit us.