Guitar Tabs
song title    band name

Join Us Today!

Don't strum alone...
be a part of the largest online Christian music community. Browse thousands of guitar tabs and chat w/ musicians like yourself.


It's Free!

This tab has been rated a 4.40 out of 5 for accuracy. (10 votes)Sorry, but you must be logged in to rate this tab.
Click here to log-in, or you can click here to register.
(Registration is free)

All songs owned by corresponding publishing company. If you make copies of any song on this website, be sure to report your usage to CCLI.
Submitted by: Switchfooter07

Subseven:Emotion 
Album: Subseven:The EP
C  2004 Flicker Records
Alright spent quite some time on this one, pretty close to actual
thing i believe.
I know many have wanted these tabs, because 
SUBSEVEN ROCKS!	

Drop D tuning

Intro
Guitar 1 (0:00)
|----------|       |-----------------------------------|
|-5-5-6-6--|       |-5-5-6-6-8-8-6-6-5-5-6-6-5-5-6-6-5-|
|----------|  x11 |-----------------------------------|
|----------|       |-----------------------------------|
|----------|       |-----------------------------------|
|----------|       |-----------------------------------|

Guitar 1 (0:09)
|----------|       |-----------------------------------|
|-5-5-6-6--|       |-5-5-6-6-8-8-6-6-5-5-6-6-5-5-6-6-5-|
|----------|  x11  |-----------------------------------|
|----------|       |-----------------------------------|
|----------|       |-----------------------------------|
|----------|       |-----------------------------------|

Guitar 2 (0:09)
|--------|
|-13-13--|
|--------| x 15
|--------|
|--------|
|--------|

Verse
Guitar 1 and 2 (0:19)
|----|
|----|
|----| x8
|-0--|
|-0--|
|-0--|

Guitar 1 (0:24)
|-12--|
|-----|
|-10--| x8
|-----|
|-----|
|-----|

Guitar 2 (0:24)
|-------|
|-------|
|-------| x8
|-8-x-x-|
|-8-x-x-|
|-8-x-x-|

Guitar 1 and 2 (0:28)
|----|
|----|
|----| x8
|-0--|
|-0--|
|-0--|

Guitar 1 and 2 (0:33)
|-------|
|-------|
|-------| x8
|-8-x-x-|
|-8-x-x-|
|-8-x-x-|

Chorus
Guitar 1 and 2 (0:37)

|----------------------------------|
|----------------------------------|
|----------------------------------| x2
|-3333333777777700000008888888-----| 
|-3333333777777700000008888888-----|
|-3333333777777700000008888888-----|

Bridge
Guitar 1 (0:57)

|-------------|
|-8-6-5-------|
|-------10-9-7| x2
|-------------|
|-------------|
|-------------|

Guitar 2 (0:56)
(Open, palm muted)
|-----------|
|-----------|
|-----------| x4
|-x-x--x----|
|-x-x--x----|
|-x-x--x----|

Verse
Guitar 1 and 2 (1:01)
(Palm muted)

|----------------------------------|
|----------------------------------|
|----------------------------------| x2
|----------------------------------|
|-00000000888888883333333377777777-|
|-00000000888888883333333377777777-|

Verse
Guitar 1 and 2 (1:20)
|----|
|----|
|----| x8
|-0--|
|-0--|
|-0--|

Guitar 1 (1:24)
|-12--|
|-----|
|-10--| x8
|-----|
|-----|
|-----|

Guitar 2 (1:24)
|-------|
|-------|
|-------| x8
|-8-x-x-|
|-8-x-x-|
|-8-x-x-|

Guitar 1 and 2 (1:29)
Some weird distorted guitar riff i can't
figure out goes on here too.
|----|
|----|
|----| x8
|-0--|
|-0--|
|-0--|

Guitar 1 and 2 (1:34)
|-------|
|-------|
|-------| x8
|-8-x-x-|
|-8-x-x-|
|-8-x-x-|

Chorus
Guitar 1 and 2 (1:38)

|----------------------------------|
|----------------------------------|
|----------------------------------| x2
|-3333333777777700000008888888-----| 
|-3333333777777700000008888888-----|
|-3333333777777700000008888888-----|

Bridge
Guitar 1 (1:59)

|---------------------------------------------------|
|-8-6-5----------8-6-5----------8-6-5---------8-6-5-|
|--------10-9-7---------10-9-7--------10-9-7--------|
|---------------------------------------------------|
|---------------------------------------------------|
|---------------------------------------------------|

Guitar 2 (1:58)
(Open, palm muted)
|-----------|
|-----------|
|-----------| x8
|-x-x--x----|
|-x-x--x----|
|-x-x--x----|

Vocals only (2:07)

Chorus
Guitar 1 and 2 (2:09)

|---------------------------------------------------|
|---------------------------------------------------|
|---------------------------------------------------|
|-7777777000000088888883333333777777700000008888888-| 
|-7777777000000088888883333333777777700000008888888-|
|-7777777000000088888883333333777777700000008888888-|

Guitar 1 (2:26)
(in the song very quiet)

|-8-6-5---|
|-------8-|
|---------| x6
|---------|
|---------|
|---------|

Guitar 2 (2:26)
(constant up and down stokes)

|----------------------------------|
|----------------------------------|
|----------------------------------| x2
|-3333333777777700000008888888-----| 
|-3333333777777700000008888888-----|
|-3333333777777700000008888888-----|

Outro
Guitar 1 and 2 (2:44)
(Open, palm muted)

|---------------------------------------|
|---------------------------------------|
|---------------------------------------|
|-x-x--x---x-x--x---x-x--x---x-x--x-x-x-|
|-x-x--x---x-x--x---x-x--x---x-x--x-x-x-|
|-x-x--x---x-x--x---x-x--x---x-x--x-x-x-|

Tabbed by Braden Lenny
If you find anything wrong with this email me at ttbclenny@msn.com

Comments about this tab

ImissDCtalk34 - 2005-01-12

dude if somebody could tab out Faded letters by Subseven, that would be awesome.
I love that song.


nodnerb - 2005-01-13

Guitar 2 (0:09)
|--------|
|-13-13--|
|--------| x 15
|--------|
|--------|
|--------|

should be...

Guitar 2 (0:09)
|---------|
|-8-8--5-5|
|---------| x 15
|---------|
|---------|
|---------|


sanctusfan14 - 2005-04-02

in the chorus where is the high part guitar 2 plays?


CZECHKNIGHT93 - 2005-06-10

Great tab! The correction by nodnerb above is correct. Other than that, GREAT work.


innervision - 2005-08-09

on the chorus part if you listen to the CD and no one has gotten this yet from any tabs i saw, but you can hear it plain as day. there is a step down to go back to repeat, palm muted, like this..
|------------------------------------|
|------------------------------------|
|------------------------------------| x2
|-3333333777777700000008888888-5-3---|
|-3333333777777700000008888888-5-3---|
|-3333333777777700000008888888-5-3---|
p.m. . .
and then you go back into the first part of the chorus the 333 etc.


innervision - 2005-08-09

on the chorus part if you listen to the CD and no one has gotten this yet from any tabs i saw, but you can hear it plain as day. there is a step down to go back to repeat, palm muted, like this..
|------------------------------------|
|------------------------------------|
|------------------------------------| x2
|-3333333777777700000008888888-5-3---|
|-3333333777777700000008888888-5-3---|<----the 5 and 3 is palm muted
|-3333333777777700000008888888-5-3---|

and then you go back into the first part of the chorus the 333 etc.


blindsidelova - 2005-11-30

what is the tuning?


LemonySnicket - 2006-12-09

NICE!!SUBSEVEN IS WICKED!


Add a comment/correction

Complimentary Christian Ringtones
Dadamobile and CGR have teamed up to bring your favorite Christian artists right to your phone. Sign up today and get 10 complementary ringtones!
Tab Country
Did you know CGR has a sister site w/ country guitar tabs? Well we do! Its called Tab Country. It has a great archive with a lot of country tabs.
Rockin Tabs
Are you looking for a site that has rock guitar tabs? Then Rockintabs.com is the place for you. It is a budding site with many rock guitar tabs. Submit your tab today.
Tab Gallery
Tab Gallery has a compilation of christian, rock, and country tabs all in one place. Come visit us.