Guitar Tabs
song title    band name

Join Us Today!

Don't strum alone...
be a part of the largest online Christian music community. Browse thousands of guitar tabs and chat w/ musicians like yourself.


It's Free!

This tab has not yet been rated for accuracy.Sorry, but you must be logged in to rate this tab.
Click here to log-in, or you can click here to register.
(Registration is free)

All songs owned by corresponding publishing company. If you make copies of any song on this website, be sure to report your usage to CCLI.
Submitted by: timid8r

Song Name: It's A Shame
Album: Wire
Artist: Third Day
Copyright: 2004 New Spring Publishing/ASCAP
Tabbed By: T. Kennedy

Capo 4(G)
**all chords and tab relative to capo**


INTRO: Riff 1 (x2)


VERSE 1:
G               D/F#            
Am                     C
G		   D/F#           
Am                      C

PRE-CHORUS: w/Riff 2
C      C/B               C   
Am7      G              C
 


CHORUS:
Am               C
G                                  D/F#
Am               C
G                               D/F# (2nd time to Bridge)
C    Dadd4   C (legato slide from C to Dadd4 back to C)



VERSE 2:
G	     D/F#           
Am		    C
G                  D/F#        
Am		     C	


PRE-CHORUS:

CHORUS:


BRIDGE:   
C                             G
D/F#	                       Am
C                             G
F                              D/F#

CHORUS: (x2)

Riff 1: (x2)



Riff 1:
|-----------7--------|-8---------|
|--8---10-------10---|-----8-----|
|----7----7---7----7-|---7-------|
|--------------------|-----------|
|--------------------|-----------|
|--------------------|-----------|

Riff 2:
  C       C/B       C              Am7     G         C
|-----------------|--------------|-----------------|-----------|
|-----1-------1---|-----1--------|-----1-------3---|-------1---|
|-------0-------0-|-----0--------|-------0-------0-|-----0-0---|
|---2-------2-----|---2----------|---2-------------|---2-------|
|-3-------2-------|-3------3--2--|-0---------2-----|-3---------|
|-----------------|--------------|---------3-------|-----------|


CHORDS: (relative to capo)
G     320033
D/F#  200232
Am    x02210
C     x32010
C/B   x22010
Am7   x02010
Dadd4 x54030
F     133211

Comments about this tab

56goldtop - 2004-12-12

The intro tab is easier played like this (and accurate):

NOT RELATIVE TO CAPO (you can still play it with a capo on, but don't play it higher due to the capo)

e-7---9---11---9---12---7----
B---7---7----7---7----7------ x2


timid8r - 2004-12-20

Easy for those with big hands/long fingers maybe! :o) The way I have it tabbed is a d-shape chord at the 11th fret. Also pretty easy to play (and accurate).


sixstringes777 - 2005-03-20

i did not type that last note.
I dont know who did.
this is my first time on this tab.
I actually play the into like this -

Capo 9
e------0--------0--------------------
B--------3--------3------5-----------
G----2--------2--------2-------------
D--0--------4--------0---------------
A------------------------------------
E------------------------------------


Add a comment/correction

Complimentary Christian Ringtones
Dadamobile and CGR have teamed up to bring your favorite Christian artists right to your phone. Sign up today and get 10 complementary ringtones!
Tab Country
Did you know CGR has a sister site w/ country guitar tabs? Well we do! Its called Tab Country. It has a great archive with a lot of country tabs.
Rockin Tabs
Are you looking for a site that has rock guitar tabs? Then Rockintabs.com is the place for you. It is a budding site with many rock guitar tabs. Submit your tab today.
Tab Gallery
Tab Gallery has a compilation of christian, rock, and country tabs all in one place. Come visit us.