Guitar Tabs
song title    band name

Join Us Today!

Don't strum alone...
be a part of the largest online Christian music community. Browse thousands of guitar tabs and chat w/ musicians like yourself.


It's Free!

This tab has not yet been rated for accuracy.Sorry, but you must be logged in to rate this tab.
Click here to log-in, or you can click here to register.
(Registration is free)

All songs owned by corresponding publishing company. If you make copies of any song on this website, be sure to report your usage to CCLI.
Mrs. Leslie w/ bass lines
By Galactic Cowboys
Written by Monty Colvin
Dropped D tuning-DADGBE
Transcribed by: Andrew Saunders
Submitted by: John Street

Riff 1
D-------|-1-1--1-1--1/2--2-2--2--2-|
A-drums-|-1-1--1-1--1/2--2-2--2--2-|
E-------|-1-1--1-1--1/2--2-2--2--2-|

Bass Riff                                                       Riff 1
D--------------------------------------------------------------|----------
A--------------------------------------------------------------|----------
E-3--0--3--0--1--0----0--3--0--1--0--3--4--5--3--0--3--0--1--0-|-1-1--1-1-

D-------------------|       NOTE-All bass lines are arranged for guitar
A-------------------|
E-1/2--2-2--2-2-2-2-|

Riff 2
e--------------------------------------------|
B--------5--5h7--7/8----7--5--3----5-3-------|
G--7---7-------------------------------5-----|
D----7---------------------------------------|
A--------------------------------------------|
E--------------------------------------------|
|
e--------------------------------------------|
B--------------------------------------------|
G--7-5-4-5-----------------------------------|
D--------------7---7-5-5h7-5--4----5-4-------|
A---------------------------------------7--5-|
E--------------------------------------------|

Riff 3
D-------------1--0-------------1--0-----------------------1--0----0----------
A-3--0--3--0--1--0----0--3--0--1--0--3--4--5--3--0--3--0--1--0----0-1-1--1-1-
E-3--0--3--0--1--0----0--3--0--1--0--3--4--5--3--0--3--0--1--0----0-1-1--1-1-
 ....p.m....          ..p.m..        .......p.m.........            ..p.m...
D-------------------
A-1/2--2-2--2-2-2-2-        Play Verse Riff 4 times.
E-1/2--2-2--2-2-2-2-
  .......p.m.......

Pre-chorus (bass)
D------------------------------------------------|
A------------------------------------------------|
E--8--7--5--3--6--5--3--1----0000---1--0000---0--|
Guitar
D-----------------------------------1---------0--|
A-----------------------------------1---------0--|
E----------------------------0000---1--0000---0--|

Fill 1
e-------------|
B-------------|
G--10---------|
D--10--10-10--|
A--8--/10-10--|
E--8--/10-10--|

Chorus
D--0--------7-------8-----------1------------0-
A--0--------7-------8-----------1------------0-
E--0--------7-------8-----------1------------0-
 And she's living a life full of regret, she plans to tell no one

D-------7-----------8-------1---1---1-------------------
A-------7-----------8-------1---1---1-------------------
E-------7-----------8-------1---1---1-------------------
 of the dark little secret, all about       Mrs. Leslie

Bridge
Riff 4                                 Riff C 4 times
D-------------------                    Riff D once
A-0000000000---1--1-                    Riff C 3 times
E-0000000000---1--1-                    Riff D once
                                        Riff C once
Riff 5                                 Riff D once
D------------------                     Riff C 1 time
A-00-5-6--5-6--5-8-                     Riff D once
e-00-5-6--5-6--5-8-

 Riff 6
D-------5~~~------------5~~~------      Then play:
A-0000------6-5---0000------6-5-8-      Riff E 5 times
E-0000------6-5---0000------6-5-8-      Riff F 1 time

 Riff 7
D----------------------
A-333-2-1-444-3-2-33-2-
E-333-2-1-444-3-2-33-2-

Chorus (Palm mute entire time)
D----------0-0-0-0--7-7-7-7-7-7--8-8-8-8-8-8-1-1-1-1-1-1-1-1--0-0-
A-5/7-7----0-0-0-0--7-7-7-7-7-7--8-8-8-8-8-8-1-1-1-1-1-1-1-1--0-0-
E-5/7-7----0-0-0-0--7-7-7-7-7-7--8-8-8-8-8-8-1-1-1-1-1-1-1-1--0-0-
 And she's living a life full of regret, the word has gotten round

D-0-0-0-0--7-7-7-7-7-7--8-8-8-8-8-8-1-1-1-1-1-1-1-1--0-0-
A-0-0-0-0--7-7-7-7-7-7--8-8-8-8-8-8-1-1-1-1-1-1-1-1--0-0-
E-0-0-0-0--7-7-7-7-7-7--8-8-8-8-8-8-1-1-1-1-1-1-1-1--0-0-
   Of the  dark little secret, all about her

D-0-0-0-0--7-7-7-7-7-7--8-8-8-8-8-8-1-1-1-1-1-1-1-1--0-0-
A-0-0-0-0--7-7-7-7-7-7--8-8-8-8-8-8-1-1-1-1-1-1-1-1--0-0-
E-0-0-0-0--7-7-7-7-7-7--8-8-8-8-8-8-1-1-1-1-1-1-1-1--0-0-
      In a life full of riches, she's such a needy soul

D-0-0-0-0--7-7-7-7-7-7--8-8-8-8-8-8-1---1---1------------
A-0-0-0-0--7-7-7-7-7-7--8-8-8-8-8-8-1---1---1------------
E-0-0-0-0--7-7-7-7-7-7--8-8-8-8-8-8-1---1---1------------
  A nasty litte story which is      all about   Mrs. Leslie

D-1---1---1------
A-1---1---1------
E-1---1---1------
   All about. . . .

   * For all you bassists, if you want to know the bass for the entire
     song, just e-mail lowells1@airmail.net
     and he'll figure it out.

Comments about this tab

No comments/corrections found. Add your own

Complimentary Christian Ringtones
Dadamobile and CGR have teamed up to bring your favorite Christian artists right to your phone. Sign up today and get 10 complementary ringtones!
Tab Country
Did you know CGR has a sister site w/ country guitar tabs? Well we do! Its called Tab Country. It has a great archive with a lot of country tabs.
Rockin Tabs
Are you looking for a site that has rock guitar tabs? Then Rockintabs.com is the place for you. It is a budding site with many rock guitar tabs. Submit your tab today.
Tab Gallery
Tab Gallery has a compilation of christian, rock, and country tabs all in one place. Come visit us.