Guitar Tabs
song title    band name

Join Us Today!

Don't strum alone...
be a part of the largest online Christian music community. Browse thousands of guitar tabs and chat w/ musicians like yourself.


It's Free!

This tab has not yet been rated for accuracy.Sorry, but you must be logged in to rate this tab.
Click here to log-in, or you can click here to register.
(Registration is free)

All songs owned by corresponding publishing company. If you make copies of any song on this website, be sure to report your usage to CCLI.
Submitted by: stratocasterman

Song: I Climb
Artist: Thousand Foot Krutch
Tabbed By: SSj & Vincent508, redone by ryan cecil
im just doing this so its easier to play eith the cd and read the 
tab at the same time. i think there area couple 
changes i need to make though



!! Drop D !!

()= Optional
*= mute strings



Intro/Verse
E------------------------------------------------
B------------------------------------------------
G–-(12)----------15-14-15-12-10-12-8-7/8\7-------
D------------------------------------------------
A------------------------------------------------
D------------------------------------------------

E------------------------------------------------
B------------------------------------------------
G–-(12)----------15-14-15-12-10-12-8-7/8\7-------
D------------------------------------------------
A------------------------------------------------
D------------------------------------------------





Pre-Chorus
E--------------------------------------------------------
B--------------------------------------------------------
G--------------------------------------------------------
D–-1–1–*-1-1-*-1-1-*-1-1-8p7--5-5-*-5-5-*-5-5-*-5-5-*-5/3
A–-1–1–*-1-1-*-1-1-*-1-1-8p7--5-5-*-5-5-*-5-5-*-5-5-*-5/3
D–-1–1–*-1-1-*-1-1-*-1-1-8p7--5-5-*-5-5-*-5-5-*-5-5-*-5/3

E--------------------------------------------------------
B--------------------------------------------------------
G--------------------------------------------------------
D–-1-1-*-1-1-*-1-1-*-1-1-8p7–-3-3-*-3-3-*-3-3-*-3XXXXXX----i think
A–-1-1-*-1-1-*-1-1-*-1-1-8p7--3-3-*-3-3-*-3-3-*-3XXXXXX--
D–-1-1-*-1-1-*-1-1-*-1-1-8p7--3-3-*-3-3-*-3-3-*-3XXXXXX–-


Chorus
E----------------------------------------------------
B----------------------------------------------------
G----------------------------------------------------
D–-5--5--5--5--0--0--0--0--6--6--6--6--1--1--1--1/3–-
A–-5--5--5—-5—-0—-0--0--0--6--6--6--6--1--1--1--1/3--
D–-5--5--5--5--0--0--0--0--6--6--6--6--1--1--1--1/3–-

E---------------------------------------------
B---------------------------------------------
G---------------------------------------------
D--5--5--5--5--0--0--0--0--6-6--6--6XXX–6–-6--
A--5--5--5--5--0--0--0--0--6-6--6--6XXX-6--6--
D–-5–-5--5--5--0--0--0--0--6-6--6--6XXX-6--6--
				   

chorus
E----------------------------------------------------
B----------------------------------------------------
G----------------------------------------------------
D–-5--5--5--5--0--0--0--0--6--6--6--6--1--1--1--1/3–-
A–-5--5--5—-5—-0—-0--0--0--6--6--6--6--1--1--1--1/3--
D–-5--5--5--5--0--0--0--0--6--6--6--6--1--1--1--1/3–-

E---------------------------------------------
B---------------------------------------------
G---------------------------------------------
D--5--5--5--5--0--0--0--0--6-6--6--6XXX–6–-6--
A--5--5--5--5--0--0--0--0--6-6--6--6XXX-6--6--
D–-5–-5--5--5--0--0--0--0--6-6--6--6XXX-6--6--



intro
E------------------------------------------------
B------------------------------------------------
G–-(12)----------15-14-15-12-10-12-8-7/8\7-------
D------------------------------------------------
A------------------------------------------------
D------------------------------------------------

E------------------------------------------------
B------------------------------------------------
G–-(12)----------15-14-15-12-10-12-8-7/8\7-------
D------------------------------------------------
A------------------------------------------------
D------------------------------------------------

E------------------------------------------------
B------------------------------------------------
G–-(12)----------15-14-15-12-10-12-8-7/8\7-------
D------------------------------------------------
A------------------------------------------------
D------------------------------------------------


Pre-Chorus_2
E----------------------------------------------------
B----------------------------------------------------
G----------------------------------------------------
D–-1–1–*-1-1-*-1-1-*-1-1-8-7-9--3---5-5-*-5-5-*-5\3--
A–-1–1–*-1-1-*-1-1-*-1-1-8-7-9--3---5-5-*-5-5-*-5\3--
D–-1–1–*-1-1-*-1-1-*-1-1-8-7-9--3---5-5-*-5-5-*-5\3--

E--------------------------------------------------------
B--------------------------------------------------------
G--------------------------------------------------------
D–-1-1-*-1-1-*-1-1-*-1-1-8p7–-3-3-*-3-3-*-3-3-*-3-3XXXX--
A–-1-1-*-1-1-*-1-1-*-1-1-8p7--3-3-*-3-3-*-3-3-*-3-3XXXX--
D–-1-1-*-1-1-*-1-1-*-1-1-8p7--3-3-*-3-3-*-3-3-*-3-3XXXX–-

Chorus
E----------------------------------------------------
B----------------------------------------------------
G----------------------------------------------------
D–-5--5--5--5--0--0--0--0--6--6--6--6--1--1--1--1/3–-
A–-5--5--5—-5—-0—-0--0--0--6--6--6--6--1--1--1--1/3--
D–-5--5--5--5--0--0--0--0--6--6--6--6--1--1--1--1/3–-

E---------------------------------------------
B---------------------------------------------
G---------------------------------------------
D--5--5--5--5--0--0--0--0--6-6--6--6XXX–6–-6--
A--5--5--5--5--0--0--0--0--6-6--6--6XXX-6--6--
D–-5–-5--5--5--0--0--0--0--6-6--6--6XXX-6--6--


Chorus
E----------------------------------------------------
B----------------------------------------------------
G----------------------------------------------------
D–-5--5--5--5--0--0--0--0--6--6--6--6--1--1--1--1/3–-
A–-5--5--5—-5—-0—-0--0--0--6--6--6--6--1--1--1--1/3--
D–-5--5--5--5--0--0--0--0--6--6--6--6--1--1--1--1/3–-

E---------------------------------------------
B---------------------------------------------
G---------------------------------------------
D--5--5--5--5--0--0--0--0--6-6--6--6XXX–6–-6--
A--5--5--5--5--0--0--0--0--6-6--6--6XXX-6--6--
D–-5–-5--5--5--0--0--0--0--6-6--6--6XXX-6--6--



Bridge
(Note: I’m not 100% sure that this part is correct so if you fix it, please put it in the correction box)
E-------------------------------------------------------------------------
B-------------------------------------------------------------------------
G–-777777777777-888888888888-101010101010101010101010-12-12–-12-12-15/12--
D–-777777777777-888888888888-101010101010101010101010-12-12–-12-12-15/12--
A–-555555555555-666666666666-8-8-8-8-8-8-8-8-8-8-8-8--10-10–-10-10–13/10--
D-------------------------------------------------------------------------

E---------------------------------------------------------------
B---------------------------------------------------------------
G--777777777777-888888888888-555555555555-7--7--7--7--8--------- 
D--777777777777-888888888888-555555555555-7--7--7--7--8--------- 
A--555555555555-666666666666-333333333333-5--5--5--5—–6--------- 
D---------------------------------------------------------------


Chorus
E----------------------------------------------------
B----------------------------------------------------
G----------------------------------------------------
D–-5--5--5--5--0--0--0--0--6--6--6--6--1--1--1--1/3–-
A–-5--5--5—-5—-0—-0--0--0--6--6--6--6--1--1--1--1/3--
D–-5--5--5--5--0--0--0--0--6--6--6--6--1--1--1--1/3–-

E---------------------------------------------
B---------------------------------------------
G---------------------------------------------
D--5--5--5--5--0--0--0--0--6-6--6--6XXX–6–-6--
A--5--5--5--5--0--0--0--0--6-6--6--6XXX-6--6--
D–-5–-5--5--5--0--0--0--0--6-6--6--6XXX-6--6--

Chorus
E----------------------------------------------------
B----------------------------------------------------
G----------------------------------------------------
D–-5--5--5--5--0--0--0--0--6--6--6--6--1--1--1--1/3–-
A–-5--5--5—-5—-0—-0--0--0--6--6--6--6--1--1--1--1/3--
D–-5--5--5--5--0--0--0--0--6--6--6--6--1--1--1--1/3–-

E---------------------------------------------
B---------------------------------------------
G---------------------------------------------
D--5--5--5--5--0--0--0--0--6-6--6--6XXX–6–-6--
A--5--5--5--5--0--0--0--0--6-6--6--6XXX-6--6--
D–-5–-5--5--5--0--0--0--0--6-6--6--6XXX-6--6--



Outro
E-----------------------------------------------------------
B-----------------------------------------------------------
G-----------------------------------------------------------
D–-5-----0-----6----1----3------5-----0----6-6-6--6XXX–6-6--
A–-5-----0-----6----1----3------5-----0----6-6-6--6XXX–6-6--
D–-5-----0-----6----1----3------5-----0----6-6-6--6XXX-6-6--

Outro
E-----------------------------------------------------------
B-----------------------------------------------------------
G-----------------------------------------------------------
D–-5-----0-----6----1----3------5-----0----6-6-6--6XXX–6-6--
A–-5-----0-----6----1----3------5-----0----6-6-6--6XXX–6-6--
D–-5-----0-----6----1----3------5-----0----6-6-6--6XXX-6-6--




hey props to SSj & Vincent508




heres the original


Song: I Climb
Artist: Thousand Foot Krutch
Tabbed By: SSj & Vincent508

!! Drop D !!

()= Optional
*= mute strings

Intro/Verse
E------------------------------------------------
B------------------------------------------------
G–-(12)----------15-14-15-12-10-12-8-7/8\7-------
D------------------------------------------------
A------------------------------------------------
D------------------------------------------------

Pre-Chorus
E----------------------------------------------------
B----------------------------------------------------
G----------------------------------------------------
D–-1–1–*-1-1-*-1-1-*-1-1-8p7--5-5-*-5-5-*-5-5-*-5\3--
A–-1–1–*-1-1-*-1-1-*-1-1-8p7--5-5-*-5-5-*-5-5-*-5\3--
D–-1–1–*-1-1-*-1-1-*-1-1-8p7--5-5-*-5-5-*-5-5-*-5\3--

E--------------------------------------------------------
B--------------------------------------------------------
G--------------------------------------------------------
D–-1-1-*-1-1-*-1-1-*-1-1-8p7–-3-3-*-3-3-*-3-3-*-3-3XXXX--
A–-1-1-*-1-1-*-1-1-*-1-1-8p7--3-3-*-3-3-*-3-3-*-3-3XXXX--
D–-1-1-*-1-1-*-1-1-*-1-1-8p7--3-3-*-3-3-*-3-3-*-3-3XXXX–-

Pre-Chorus_2
E----------------------------------------------------
B----------------------------------------------------
G----------------------------------------------------
D–-1–1–*-1-1-*-1-1-*-1-1-8-7-9--3---5-5-*-5-5-*-5\3--
A–-1–1–*-1-1-*-1-1-*-1-1-8-7-9--3---5-5-*-5-5-*-5\3--
D–-1–1–*-1-1-*-1-1-*-1-1-8-7-9--3---5-5-*-5-5-*-5\3--

E--------------------------------------------------------
B--------------------------------------------------------
G--------------------------------------------------------
D–-1-1-*-1-1-*-1-1-*-1-1-8p7–-3-3-*-3-3-*-3-3-*-3-3XXXX--
A–-1-1-*-1-1-*-1-1-*-1-1-8p7--3-3-*-3-3-*-3-3-*-3-3XXXX--
D–-1-1-*-1-1-*-1-1-*-1-1-8p7--3-3-*-3-3-*-3-3-*-3-3XXXX–-

Chorus
E----------------------------------------------------
B----------------------------------------------------
G----------------------------------------------------
D–-5--5--5--5--0--0--0--0--6--6--6--6--1--1--1--1/3–-
A–-5--5--5—-5—-0—-0--0--0--6--6--6--6--1--1--1--1/3--
D–-5--5--5--5--0--0--0--0--6--6--6--6--1--1--1--1/3–-

E---------------------------------------------
B---------------------------------------------
G---------------------------------------------
D--5--5--5--5--0--0--0--0--6-6--6--6XXX–6–-6--
A--5--5--5--5--0--0--0--0--6-6--6--6XXX-6--6--
D–-5–-5--5--5--0--0--0--0--6-6--6--6XXX-6--6--
				   |--Listen to Cd to figure out exactly how it goes
					This is just for show, lol.–-|

Bridge
(Note: I’m not 100% sure that this part is correct so if you fix it, please put it in the correction box)
E-------------------------------------------------------------------------
B-------------------------------------------------------------------------
G–-777777777777-888888888888-101010101010101010101010-12-12–-12-12-15/12--
D–-777777777777-888888888888-101010101010101010101010-12-12–-12-12-15/12--
A–-555555555555-666666666666-8-8-8-8-8-8-8-8-8-8-8-8--10-10–-10-10–13/10--
D-------------------------------------------------------------------------

E---------------------------------------------------------------
B---------------------------------------------------------------
G--777777777777-888888888888-555555555555-7--7--7--7--8--------- There’s a bit 
D--777777777777-888888888888-555555555555-7--7--7--7--8--------- of scratchin’
A--555555555555-666666666666-333333333333-5--5--5--5—–6--------- but you can
D--------------------------------------------------------------- figure it out


Outro
E-----------------------------------------------------------
B-----------------------------------------------------------
G-----------------------------------------------------------
D–-5-----0-----6----1----3------5-----0----6-6-6--6XXX–6-6--
A–-5-----0-----6----1----3------5-----0----6-6-6--6XXX–6-6--
D–-5-----0-----6----1----3------5-----0----6-6-6--6XXX-6-6--

Order:
Intro x2
Pre Chorus 
Chorus x2
Intro x3
Pre Chorus_2
Chorus x2
Bridge
Chorus x2
Outro x2

There you have it.

SSj






thats it c ya ryan cecil

Comments about this tab

SSj Guitarist - 2004-10-28

Why may I ask did you do this? You could've just put it in the correction box, seeing as it's the exact same tab except for one little thing......But whatever, At least you gave me and my friend the credit....but still, lol, weird.. Peace anyway :p

SSj


Add a comment/correction

Complimentary Christian Ringtones
Dadamobile and CGR have teamed up to bring your favorite Christian artists right to your phone. Sign up today and get 10 complementary ringtones!
Tab Country
Did you know CGR has a sister site w/ country guitar tabs? Well we do! Its called Tab Country. It has a great archive with a lot of country tabs.
Rockin Tabs
Are you looking for a site that has rock guitar tabs? Then Rockintabs.com is the place for you. It is a budding site with many rock guitar tabs. Submit your tab today.
Tab Gallery
Tab Gallery has a compilation of christian, rock, and country tabs all in one place. Come visit us.