Guitar Tabs
song title    band name

Join Us Today!

Don't strum alone...
be a part of the largest online Christian music community. Browse thousands of guitar tabs and chat w/ musicians like yourself.


It's Free!

This tab has been rated a 3.33 out of 5 for accuracy. (3 votes)Sorry, but you must be logged in to rate this tab.
Click here to log-in, or you can click here to register.
(Registration is free)

All songs owned by corresponding publishing company. If you make copies of any song on this website, be sure to report your usage to CCLI.
Submitted by: camedman47

Song: God of My Life
Artist: Jonah33

I made this tab cause the other one was missing some parts in the intro and
 verse, which is teh most important part of the song.

Intro-listen to song for timing

e----------------------------------
B---------------------------------
G-----0--------------------------      x2
D--------4-----2-0----0--------
A------------------------------2b
E-3-------3--------3------3-----

Verse

e-----------------------------------------------------------------------
B----------------------------------------------------------------------
G---0-------------------------------------0---------------------------
D------4-----2-0-----0----------------------4-----2-0------0-------
A----------------------------2b--------------------------------------2b
E-3-------3--------3-----3-----------0---------0--------0------0-----

e---------------------------------------------------------
B--------------------------------------------------------
G---0--------0h2-------2/4----------0--------------0-               x2
D------4---------------------------2-----2-------4-----4
A-3-------3--------3-3--------3------------3/5---------
E----------------------------------------------------------

Pre-chorus:    C     D    
	          C     Em
	          C     D
	          C     Em     D

Chorus:  G    C    D    Em    C     D   (repeat as necessary)


Bridge:   G      F      C     A       A---0h2-22-0h2-22
				      E---------------------
	    
   G     F     C      A     G

2nd Bridge: (slower) G       C
                                 G       C
  (BGVs come in) G      C
            (faster)       G      C
	                  G       C       (chorus)

Comments about this tab

crazychu - 2004-10-30

question..at the bridge your cords are G F C A but where do i plug them in? its so confusing for me

G F C A
G F C A G

All creation waits for the revealing of Your glory.

All the sons of God rise in victory, rise with healing.

where do i put them?


B-rad - 2004-11-01

Oh, dude, my bad it must have messed up or something, the Bridge is
B F G F


B-rad - 2004-11-01

Dude this song is massively off!


camedman47 - 2004-11-02

yeah the chords and stuff might be quite a bit off but i know for sure that the intro and verse are right. if you want you can like, modify the song on the administrator thing and get rid of all the chords and stuff cause i dont think theyre right that would probably be better.


mondaymrningfan - 2004-11-18

I'm very sure that the real chords to the chorus are

G C D Am*Am*Am*Am* Am*Am*Am*Am* C D

try that and you have to play the Am's fast. Just listen to the cd and it will sound perfect.


Torie(p_4J) - 2005-12-31

This is soo off from the song ! B-Rad ur verson is rightoo....LoL..


Add a comment/correction

Complimentary Christian Ringtones
Dadamobile and CGR have teamed up to bring your favorite Christian artists right to your phone. Sign up today and get 10 complementary ringtones!
Tab Country
Did you know CGR has a sister site w/ country guitar tabs? Well we do! Its called Tab Country. It has a great archive with a lot of country tabs.
Rockin Tabs
Are you looking for a site that has rock guitar tabs? Then Rockintabs.com is the place for you. It is a budding site with many rock guitar tabs. Submit your tab today.
Tab Gallery
Tab Gallery has a compilation of christian, rock, and country tabs all in one place. Come visit us.