Guitar Tabs
song title    band name

Join Us Today!

Don't strum alone...
be a part of the largest online Christian music community. Browse thousands of guitar tabs and chat w/ musicians like yourself.


It's Free!

This tab has not yet been rated for accuracy.Sorry, but you must be logged in to rate this tab.
Click here to log-in, or you can click here to register.
(Registration is free)

All songs owned by corresponding publishing company. If you make copies of any song on this website, be sure to report your usage to CCLI.
Submitted by: OliverTabs

*******************************************************************************
*           Petra - I will seek you                                           *
*           Album: Jekyll & Hyde                                              *
*******************************************************************************

Tabbed by: Oliver Nemitz
E-Mail: Tabs@OliverNemitz.de
Homepage: www.OliverNemitz.de

This file represents the author's own work. Please send me an e-mail if you find mistakes!

Tuning: Tune down one whole step (D-G-C-F-A-D)

                    Riff 1:
    P.M.            P.M.
D|---------------||-----------------------||---------------------------------|
A|---------------||-----------------------||---------------------------------|
F|---------------||*---------------------*||---------------------------------|
C|---------------||*---------------------*||---------------------------------|
G|--2-2---2---2--||---2-2---2-2---2---2---||--2------------------------------|
D|---------------||-----------------------||---------------------------------|


     Part A             Part B
D|-----------------|----------------|----------------|-----------------------|
A|-----------------|----------------|----------------|-----------------------|
F|-----------------|----------------|----------------|-----------------------|
C|--5-/-7---7-7-7--|----5---2---2---|-----Part A-----|------5----5---2-------|
G|--5-/-7---7-7-7--|----5---2---2---|----------------|------5----5---2-------|
D|--3-/-5---5-5-5--|--0 3---0---0---|----------------|----0-3--0-3---0-------|

    Play Riff 1 (with two lines of the verse), then

D|----------|----------|----------|------------------------------------------|
A|----------|----------|----------|------------------------------------------|
F|----------|----------|----------|------------------------------------------|
C|--Part-A--|--Part-B--|--Part-A--|-----5----3---2---------------------------|
G|----------|----------|----------|-----5----3---2---------------------------|
D|----------|----------|----------|---0-3--0-1---0---------------------------|

    Play Riff 1

D|----------|----------|------------------|----------------------------------|
A|----------|----------|------------------|----------------------------------|
F|----------|----------|------------------|----------------------------------|
C|--Part-A--|--Part-B--|---5-/-7---7-7-9--|--9--10----5---2------------------|
G|----------|----------|---5-/-7---7-7-9--|--9--10----5---2------------------|
D|----------|----------|---3-/-5---5-5-7--|--7--8---0-3---0------------------|

    Play Riff 1

     Part A             Part B
D|-----------------|----------------|----------------|-----------------------|
A|-----------------|----------------|----------------|-----------------------|
F|-----------------|----------------|----------------|-----------------------|
C|--5-/-7---7-7-7--|----5---2---2---|-----Part A-----|------5----5---2-------|
G|--5-/-7---7-7-7--|----5---2---2---|----------------|------5----5---2-------|
D|--3-/-5---5-5-5--|--0 3---0---0---|----------------|----0-3--0-3---0-------|


Refrain:

D|-------------|----------------|-------------|------------------------------|
A|-------------|----------------|-------------|------------------------------|
F|---6----2----|---3------------|---6----2----|---3--------------------------|
C|---6----2----|---3----4---6---|---6----2----|---3----6---------------------|
G|---4----0----|---1----4---6---|---4----0----|---1----6---------------------|
D|-------------|--------2---4---|-------------|--------4---------------------|

                                                            Part C
D|-------------|----------------|-------------|---------------|--------------|
A|-------------|----------------|-------------|---------------|--------------|
F|---6----2----|---3------------|-------------|-6-/-8--8-8-8--|---4----------|
C|---6----2----|---3----4---6---|---4----6----|-6-/-8--8-8-8--|---4---6--6---|
G|---4----0----|---1----4---6---|---4----6----|-4-/-6--6-6-6--|---2---6--6---|
D|-------------|--------2---4---|---2----4----|---------------|-4-----4--4---|

second verse (uses the same figures as the first one)
Refrain

Bridge (repeated):

D|--------------------|-------------------|-----------------|----------------|
A|--------------------|-------------------|-----------------|----------------|
F|--------------------|-----4-/-5-\-4--2--|-----------------|----------------|
C|----4-----4-----4---|-----4-/-5-\-4--2--|----4----4----4--|----4---2-------|
G|----4-----4-----4---|-----2-/-3-\-2--0--|----4----4----4--|----4---2-------|
D|--0-2---0-2---0-2---|--0----------------|--0-2--0-2--0-2--|--0-2---0-------|

Refrain

ends with repetitions of part c

| /  slide up
| \  slide down
| h  hammer-on
| p  pull-off
| ~  vibrato
| +  harmonic
| x  Mute note
===============================================================================

Comments about this tab

No comments/corrections found. Add your own

Complimentary Christian Ringtones
Dadamobile and CGR have teamed up to bring your favorite Christian artists right to your phone. Sign up today and get 10 complementary ringtones!
Tab Country
Did you know CGR has a sister site w/ country guitar tabs? Well we do! Its called Tab Country. It has a great archive with a lot of country tabs.
Rockin Tabs
Are you looking for a site that has rock guitar tabs? Then Rockintabs.com is the place for you. It is a budding site with many rock guitar tabs. Submit your tab today.
Tab Gallery
Tab Gallery has a compilation of christian, rock, and country tabs all in one place. Come visit us.