Guitar Tabs
song title    band name

Join Us Today!

Don't strum alone...
be a part of the largest online Christian music community. Browse thousands of guitar tabs and chat w/ musicians like yourself.


It's Free!

This tab has not yet been rated for accuracy.Sorry, but you must be logged in to rate this tab.
Click here to log-in, or you can click here to register.
(Registration is free)

All songs owned by corresponding publishing company. If you make copies of any song on this website, be sure to report your usage to CCLI.
Submitted by: bluntrocker

Superchic[k]
ďStand Up (So Bright)Ē
Last One Picked
© 2002 Inpop Records

tabbed by bluntrocker

alright, this song had no real decent tab to it, so I figured Iíd put one up. 
this tab took me about an hour to figure out and write down, mainly because I 
had to figure out the solos. I believe this should be 100% correct. Iíve been 
playing for about 3 years, and this is my first tab, so if itís not completely 
correct, any comments would be appreciated. 

Intro: Part 1

E -----------------------------
B -----------------------------
G -44--------------44----------
D -44-6--22224-----44-6--222---	x2
A -22-4--22224-----22-6--222---
E ----4--00002--------4--000---

Intro: Part 2

E -------------------------------
B -------------------------------
G -44--------------44------------
D -44-6--22224-----44-6--222---2-  x2
A -22-4--22224-----22-6--222---2-
E ----4ó-00002--------4--000---0-

Transition into verse

E -------------
B -------------
G -4-----4444--
D -4-----4444--	 
A -2 ----2222--
E -------------

Verse (p.m.)

E ---------------
B ---------------
G ---------------
D ---------------   x8
A -22222---------
E ------44400002ó

Bridge

E -----------------------------
B -----------------------------
G -444--444--44---666--666--66-
D -444--444--44---666--666--66-	
A -222--222--22---444--444--44-
E -----------------------------

Pre-Chorus

E -----------------
B -----------------
G -444-------------
D -444-666-222---4-  x4
A -222-444-222---4-
E -----444-000---2-

Chorus

E ------------------------------------
B ------------------------------------
G -44444444-66666666-9999999999999999-
D -44444444-66666666-9999999999999999-	
A -22222222-44444444-7777777777777777-
E ------------------------------------

Then you repeat it, like this,

Intro: Part 2
Transition into verse
Verse
Bridge
Pre-Chorus
Chorus
Intro: Part 2

And then you go into the solo

E -----------------------------------------------
B -----------------------------------------------
G ----8----9----8----9----8----11----8h9----9h11-
D -99---99---99---99---99---99----99-----99------	
A -----------------------------------------------
E -----------------------------------------------

E ------------------------------------------------
B ------------------------------------------------
G ----8----9----8----9----8----8-----8h9-----9h11-
D -99---99---99---99---99---99----99------99------	
A ------------------------------------------------
E ------------------------------------------------

E ------------------------------------------------
B ------------------------------------------------
G ----8----9----8----9----8----11----8h9-----9h11-
D -99---99---99---99---99---99----99------99------	
A ------------------------------------------------
E ------------------------------------------------

E --------------------------------
B --------------------------------
G ----8----9----8----9----8----11-
D -99---99---99---99---99---99----	
A --------------------------------
E --------------------------------

These chords are over the solo, you can figure out rhythm and such pretty easy

E ---------------------------------------------------------------
B ---------------------------------------------------------------
G -4--------------4----------------44444444-66666666-99999999-11-
D -4-(let ring)---4---(let ring)---44444444-66666666-99999999-11-	
A -2--------------2----------------22222222-44444444-77777777--9-
E ---------------------------------------------------------------
				  (p.m.)

Outro 1

E ---------------------------------------------
B ---------------------------------------------
G -44444444-66666666-99999999-1111111111111111-   x3
D -44444444-66666666-99999999-1111111111111111-	
A -22222222-44444444-77777777--9-9-9-9-9-9-9-9-
E ---------------------------------------------

E ------------------------------------------
B ------------------------------------------
G -44444444-66666666-99999999-11---111111-4-  
D -44444444-66666666-99999999-11---111111-4-	
A -22222222-44444444-77777777--9----9-9-9-2-
E ------------------------------------------

Outro 2

Same as Outro 1, but with this solo played over it

E ---------------------------------------------------------
B ---------------------------------------------------------
G -8------8------9------9------9------9------9-------9-----
D ---999----999----999----999----999----999----999-----999-  x3	
A ---------------------------------------------------------
E ---------------------------------------------------------

E ----------------------------------------------------
B ----------------------------------------------------
G -8-----8------9------9------9------9------9----9994-
D ---999---999----999----999----999----999------------ 	
A ----------------------------------------------------
E ----------------------------------------------------


okay, thatís pretty much it, hopefully thatís helpful to you. once again, 
please feel free to comment if you notice anything.

~ bluntrocker

Comments about this tab

krutchfan66 - 2005-08-23

awesome job dude


jesuslova - 2006-02-21

the solo goes like this actually:
b |------4-----4-----5-------4---|
g |---4-----4-----4-----4h6------|
d |-44-44-66-66-22-22-44---44----|

b |------4-----4-------------5p4-|
g |---4-----4-----4--4--4h6------|
d |-44-44-66-66-22-22-44---44----|

b |------4-----4-----5-------5p4-|
g |---4-----4-----4-----4h6------|
d |-44-44-66-66-22-22-44---44----|

b |------4-----4-----5-7---------|
g |---4-----4-----4----6---------|
d |-44-44-66-66-22-22--4---------|


Add a comment/correction

Complimentary Christian Ringtones
Dadamobile and CGR have teamed up to bring your favorite Christian artists right to your phone. Sign up today and get 10 complementary ringtones!
Tab Country
Did you know CGR has a sister site w/ country guitar tabs? Well we do! Its called Tab Country. It has a great archive with a lot of country tabs.
Rockin Tabs
Are you looking for a site that has rock guitar tabs? Then Rockintabs.com is the place for you. It is a budding site with many rock guitar tabs. Submit your tab today.
Tab Gallery
Tab Gallery has a compilation of christian, rock, and country tabs all in one place. Come visit us.