Guitar Tabs
song title    band name

Join Us Today!

Don't strum alone...
be a part of the largest online Christian music community. Browse thousands of guitar tabs and chat w/ musicians like yourself.


It's Free!

This tab has been rated a 4.89 out of 5 for accuracy. (35 votes)Sorry, but you must be logged in to rate this tab.
Click here to log-in, or you can click here to register.
(Registration is free)

All songs owned by corresponding publishing company. If you make copies of any song on this website, be sure to report your usage to CCLI.
Submitted by: LeeBoiY

Artist: Relient K
Song: Getting Into You
Album: Two Lefts Don't Make A Right... But Three Do
Copyright: Gotee Records (2003)
Tabbed By: Bryan Lee(BoiY) (leeboiy@nts-online.net)
Date: 10/04
Version: Acoustic
Tuning: Standard

-->Thanks out to all previous posts and
        comments regarding this song<--

Here's the full tab.
Intro, verse, chorus, bridge, chords | It's 
all here. Out of all the other versions of 
tabs and comments I have searched through for 
this song, this is the one I think sounds best.

	=D eNjoY =D

    _______________________________________
   |**************************************|
   |*{ { { { {____Relient K_____} } } } }*|
   |*} } } } }_Getting Into You_{ { { { {*|
   |**************************************|



Intro:
   
E----------------------------------------
B-------0--------0--------0--------------
G---------1--------1--------1------------
D-----2--------2--------2----------------
A---------------------0------------------
E---0--------2----------------2----------


Verse:

E----------------------------------------
B-------0--------0--------0------2-------
G---------1--------1--------1------2-1---
D-----2--------2--------2----------------
A---------------------0------------------
E---0--------2-----------------2---------


Chorus:

E		Emaj7		F#sus		Asus2

E		Emaj7		F#sus		Asus2



Bridge: Guitar 1

   C#m	    B	     A         E
E-----------------------------------------
B-------5--------4--------2--------0------
G------------------------------------1----  x 2
D-----6---6----4---4----2---2----2--------
A---4--------2--------0-------------------
E------------------------------0----------

   C#m	    B	     A         E
 E------------------------------0
 B-------5--------4--------2----0
 G------------------------------1
 D-----6---6----4---4----2---2--2
 A---4--------2--------0---------
 E-------------------------------


Bridge: Guitar 2
                                      (see note)
E--------------12--------------------------------
B---9--10--12--12---9--7--9--9---9--7--9-----9---
G---9--11--13-------9--8--9--9---9--8--9-----9---
D------------------------------------------------
A------------------------------------------------
E------------------------------------------------


Ending (same as intro):
   				       E
E---------------------------------------0
B-------0--------0--------0------2------0
G---------1--------1--------1------2-1--1
D-----2--------2--------2---------------2
A---------------------0-----------------2
E---0--------2-----------------2--------0



Chords:
     
     E   Emaj7  F#sus  Asus2  C#m    B     A     
E|---0-----0------0------0-----4-----2-----0-----|
B|---0-----0------0------0-----5-----4-----2-----|
G|---1-----8------2------2-----6-----4-----2-----|
D|---2-----9------4------2-----6-----4-----2-----|
A|---2-----7------4------0-----4-----2-----x-----|
E|---0-----0------0------x-----4-----2-----x-----|


*NOTES*
  -Start with the fingering for E on the intro and verse.
  -As the guitar 2 bridge part ends, the last strum tabbed
     occurs at the same time as the first open e of the 
     "verse" part following the bridge. Listen for it.... 
     It's there =).

Comments about this tab

sanctusfan14 - 2004-10-23

this is perfect, i had my guitar teacher figure it out when i first started playin a long time ago, and this is exact with it....idk y i never put it on the site.....good job!


sanctusfan14 - 2004-10-24

well, not exact....the second and third chords of the chorus r off a lil, but i think im wrong, on the second one n e way, cuz i saw em play it in concert and he does play it like u posted


ryanxxxx - 2004-12-13

it makes it easy to play it if you make an E first
------0-------
------0-------
------1-------
------2-------
------2-------
------0-------

this is one of the first songs i learned on my own
when it first came out


ReLiEnTkJuNkIe - 2004-12-21

this is by far probably my favorite relient k song! rk rocks!!!!!!!!!!!


ReLiEnTkJuNkIe - 2004-12-21

did relient k really break up?


Retrnfrmfallen - 2004-12-27

dude u r so close only the second guitar in bridge is wrong but u fixed my chorus the second guitar is

e------------0---------------------------------------
b--9--11--13---9--11--13--13--9--11--13--------------
g--9--10--12---9--10--12--12--9--10--12--------------
d----------------------------------------------------
a----------------------------------------------------
E----------------------------------------------------

then as u know 1st guitar strums the E, great tab, thanks!


Starbellied_One - 2005-01-03

Hey, thank you SO much for this tab. You did a great job.


play4jsus - 2005-01-24

nice work


Soccer Bob - 2005-01-26

Hey nice tab.. only like two problems..
Chorus goes:
E Emaj7 F#m11 Asus2
the F#m11 is played
e-0
B-0
G-6
D-7
A-9
E-x

And ur 2nd guitar on the bridge is off it actually goes:
Harm
e 4-5-7--12-4-5-7-7-4-5-4-0
B 5-7-9--12-5-7-9-9-5-7-5-0
G ------------------------1
D-------------------------2

Besides that awesome tab bro! relient k rocks!
(btw.. i have the book so i know this is 100% right)


Soccer Bob - 2005-01-26

oops.. that Harm in the bridge is supposed to be over the 12's.. sry.. my bad


sixstringes777 - 2005-01-29

R. K did NOT break up.
they came out with a new album.


jguitar08 - 2005-03-06

Tab is great!!!!!!!


Alextx89 - 2005-03-07

almost perfect, i have tab of this comin out soon, heres how u really play the chorus:
(x8)(x8) (x8) (x8)
e-0---0----0----0--------------
b-0---0----0----0--------------
g-1---8----6----2--------------
D-2---9----9----2--------------
A-2---7----7----0--------------
E-0----------------------------

thx, u can thank me later, bye


kennyd - 2005-03-16

well done


jazz_maniac825 - 2005-03-25

Great Job!! Awesome!! This is the best I've seen!!


BandStokReTT - 2005-04-15

Actually sixstring777, the band did sort of break up cuz Hoopes left the band to persue other interests.


~guitar man~ - 2005-04-21

Actually, it wasn't Hoopes that left. It was Brian Pittman, the bass player.


farfromhim - 2005-05-04

Awesome joh. man. This tab totally owns your neighbors dog.

Oh, to clarify, Relient K has been:
Thessien, Hoopes, Fescoe, and Pittman
Thessien, Hoopes, Douglas, and Pittman
Thessien, Hoopes, Douglas, and Warne
And if currently:
Thessien, Hoopes, Douglas, Warne, and Schneck.
Relient K is very much still a band, is currently on tour with Simple Plan and Good Charolette.


krutchfan66 - 2005-06-27

ya u retard.hoopes is so friggin awesome he wouldnt ever leave.


Ryan Childress - 2005-08-08

i play the e on the chorus
---9
---9
-7--
makes for an easy switch to the e7 or whatever it is


monkeyskater - 2005-09-16

can someone post how to play these chords? thanks


monkeyskater - 2005-09-18

my bad..nevermind


sportsboi - 2005-10-18

i dont even KNOW wut ur think...rk is thiessen douglas and pittman there it ends bye


whoami??really! - 2005-10-24

that is a really good tab it is the best i'ev seen so far. i'm new at this but i think that the Emaj7 goes 069800 like that. but other than that good tab.


TyBizzle - 2006-01-18

it is perfect!!!!!!!!!!!!!!!!!!!!!!!!!!!!!!!!!!!!!!!!!!!!!!


RELIENTKFREAK - 2006-03-13

PLEASE HELP ME!!!!! I CAN'T READ TABS!!!!!!


akaukal - 2006-03-29

i must admit i've lost my respect for relient k since they blew off a show with a bunch of awesome christian bands to do a show with Thrice, Thursday, Fall Out Boy (who sucks more than anything), and My Chemical Romance. i still enjoy their music though.


myguitarlife - 2006-06-22

seriously akaukal relient k is a good christian band and i can understand them trying to get peoples attention by going to play at non christian concerts but they should really tour with christian bands and help those christian bands get some attention!!! by the way great tab (~:


Guitar Player7 - 2006-09-05

Great tab dude. Who's seeing them at the Nintendo Fusion Tour?


oblivion88xx - 2006-11-30

Hey, great tab. but to me the F chord whatever its name is (sorry dont know em all too well) sounds like its played like this:

e-0-
B-0-
G-2-
D-2-
A-4-
E-0-

That just sounds good to me.


headbanger13 - 2007-04-02

I saw them at Nintendo Fusion! and Brian Pittman joined Inhale Exhale, who's much better than Relient K


joshluo123 - 2007-05-21

im pretty sure in the chorus it should be F#m. it sounds better, but it might just be me


Add a comment/correction

Complimentary Christian Ringtones
Dadamobile and CGR have teamed up to bring your favorite Christian artists right to your phone. Sign up today and get 10 complementary ringtones!
Tab Country
Did you know CGR has a sister site w/ country guitar tabs? Well we do! Its called Tab Country. It has a great archive with a lot of country tabs.
Rockin Tabs
Are you looking for a site that has rock guitar tabs? Then Rockintabs.com is the place for you. It is a budding site with many rock guitar tabs. Submit your tab today.
Tab Gallery
Tab Gallery has a compilation of christian, rock, and country tabs all in one place. Come visit us.