Guitar Tabs
song title    band name

Join Us Today!

Don't strum alone...
be a part of the largest online Christian music community. Browse thousands of guitar tabs and chat w/ musicians like yourself.


It's Free!

This tab has not yet been rated for accuracy.Sorry, but you must be logged in to rate this tab.
Click here to log-in, or you can click here to register.
(Registration is free)

All songs owned by corresponding publishing company. If you make copies of any song on this website, be sure to report your usage to CCLI.
Submitted by: scheller

Rain Down
Delirious?
Album: World Service
Copyright 2003 Curious? Music UK
Words and Music by Martin Smith and Stuart Garrard

Transcribed by scheller   sonnyschell@hotmail.com
This is an updated version after watching Delirious on New Song Cafe.
The little "o"s at the beginnings and endings of bars mean to 
repeat the staffs between. 
You can get the powertab for this song here:
http://www.powertabs.net/pta.php?page=song,11056
See Delirious show how they play Rain Down here:
http://boss.streamos.com/wmedia/emicmg/divisional/14/video/wma/300/88.wvx

Chords:
D5      x577xx
G5      355xxx
Bm      xxx432
Bmadd11 xxx430
G       xxx030
B5      x24xxx
A5      x02xxx
A/C#    x47xxx


 Intro
  D5
  Gtr I (clean)
  Palm Mute- - - - - - - - - - - - - - - - - - - - - - - - - - - - - - -|
|-----------------|-----------------|-----------------|-----------------|
|-----------------|-----------------|-----------------|-----------------|
|-----------------|-----------------|-----------------|-----------------|
|-7-7-7-7-7-7-7-7-|-7-7-7-7-7-7-7-7-|-7-7-7-7-7-7-7-7-|-7-7-7-7-7-7-7-7-|
|-5-5-5-5-5-5-5-5-|-5-5-5-5-5-5-5-5-|-5-5-5-5-5-5-5-5-|-5-5-5-5-5-5-5-5-|
|-----------------|-----------------|-----------------|-----------------|
|
| Gtr III (clean) (barely audible but it's there)
|-----------------|-----------------|-----------------|-----------------|
|-7-----7-----7---|---7-----7---5---|-7-----7-----7---|---7-----7---5---|
|-----------------|-----------------|-----------------|-----------------|
|-----------------|-----------------|-----------------|-----------------|
|-----------------|-----------------|-----------------|-----------------|
|-----------------|-----------------|-----------------|-----------------|


  G5                                                           Gtr II (dist)
  Palm Mute- - - - - - - - - - - - - - - - - - - - - - - - - -|     ~
|-----------------|-----------------|-----------------|------------------|
|-----------------|-----------------|-----------------|---------8-7-5-\--|
|-----------------|-----------------|-----------------|---------7-7-6-\--|
|-----------------|-----------------|-----------------|------------------|
|-5-5-5-5-5-5-5-5-|-5-5-5-5-5-5-5-5-|-5-5-5-5-5-5-5-5-|-5-5-5-5----------|
|-3-3-3-3-3-3-3-3-|-3-3-3-3-3-3-3-3-|-3-3-3-3-3-3-3-3-|-3-3-3-3----------|
|
|                                                                   ~~~
|-----------------|-----------------|-----------------|------------------|
|-7-----7-----7---|---7-----7---5---|-7-----7-----7---|---7-----7---5----|
|-----------------|-----------------|-----------------|------------------|
|-----------------|-----------------|-----------------|------------------|
|-----------------|-----------------|-----------------|------------------|
|-----------------|-----------------|-----------------|------------------|

  [Riff A]
  Gtr IV (dist) plays rhthym slashes
  D5
  /  /   /  /  /  / /  /    /  /  /  /  /  /  /  /
|------------------------|-------------------------|
|------------------------|-------------------------|
|-9-11------9-11-11-9-11-|-11--9-11-11-12-12-12-12-|
|-0--0------0--0--0-0--0-|--0--0--0--0--0--0--0--0-|
|------------------------|-------------------------|
|------------------------|-------------------------|
|
|------------------------|-------------------------|
|------------------------|-------------------------|
|------------------------|-------------------------|
|------------------------|-------------------------|
|-7--9------7--9----7--9-|-----7--9----10----10----|
|------------------------|-------------------------|


 D5
  /  /  / /  /  / /  /    /  /  /  /  /  /  /  /
|----------------------|--------------------------|
|----------------------|--------------------------|
|-9-11-11-9-11-11-9-11-|-11--9-11-11-12-11--9-11--|
|-0--0--0-0--0--0-0--0-|--0--0--0--0--0--0--0--0--|
|----------------------|--------------------------|
|----------------------|--------------------------|
|
|----------------------|--------------------------|
|----------------------|--------------------------|
|----------------------|--------------------------|
|----------------------|--------------------------|
|-7--9----7--9----7--9-|-----7--9----10----10-----|
|----------------------|--------------------------|


  G5
   /  /  /  /  /  /  /  /    / /  / /  / / / /
|--7--7--7--7--7--7--7--7-|--7-7--7-7--7-7-7-7-|
|-10-10-10-10-10-10-10-10-|--8-8--8-8--8-8-8-8-|
|-------------------------|--------------------|
|-------------------------|--------------------|
|-------------------------|--------------------|
|-------------------------|--------------------|
|
|-------------------------|--------------------|
|-------------------------|--------------------|
|-------------------------|--------------------|
|--7--9-----7--9-----7--9-|-11-9-11---11-------|
|-------------------------|--------------------|
|-------------------------|--------------------|


                                     [end Riff A]
  G5
   /  / /  /  / /  /  /    /  /  / /  / / / /
|--7--7-7--7--7-7--7--7-|--7--7--7-7--7-7-7-7--||
|--7--7-7--7--7-7--7--7-|--8--8--8-8--8-8-8-8--||
|-----------------------|----------------------||
|-----------------------|----------------------||
|-----------------------|----------------------||
|-----------------------|----------------------||
|
|-----------------------|----------------------||
|-----------------------|----------------------||
|-----------------------|----------------------||
|-11-12---11-12---11-12-|-14-12-14---14--------||
|-----------------------|----------------------||
|-----------------------|----------------------||


 Verse 1 
  [Verse Riff]
    Bm                Bmadd11           G
    Gtr III                                                                4x
||------------------|-----------------|-----------------|------------------||
||o-7-5-7-----7-----|-5-----5-5---5---|-5-5---3-----5-5-|---3-----5---3-5-o||
||------------------|-----------------|-----------------|------------------||
||------------------|-----------------|-----------------|------------------||
||o-----------------|-----------------|-----------------|-----------------o||
||------------------|-----------------|-----------------|------------------||
|
|   Gtr I (this is barely audible but I was able to isolate it)
||------2-----2-----|-0-----0-----0---|-0-----------0---|-----0---0-----0--||
||o---3---3-----3---|---3-------3---3-|---3---3---3---3-|---3---------3---o||
||--4-------4-----4-|-----4---4-------|-----0---0-------|-0-----0---0------||
||------------------|-----------------|-----------------|------------------||
||o-----------------|-----------------|-----------------|-----------------o||
||------------------|-----------------|-----------------|------------------||


 *on the third repeat of the Verse Riff, Gtr V plays:
  Gtr V
|-------------------|-----------------|-----------------|------------------|
|-------2-----------|-----------------|-----------------|------------------|
|-----2-------------|-----------------|-----------------|------------------|
|---4---------------|-----------------|-----------------|------------------|
|-x-----------------|-----------------|-----------------|------------------|
|-------------------|-----------------|-----------------|------------------|


 Gtr I
  D5
  Palm Mute- - - - - - - - - - - - - - - - - - - - - - - - - - - - - - -|
|-----------------|-----------------|-----------------|------------------|
|-----------------|-----------------|-----------------|------------------|
|-----------------|-----------------|-----------------|------------------|
|-7-7-7-7-7-7-7-7-|-7-7-7-7-7-7-7-7-|-7-7-7-7-7-7-7-7-|-7-7-7-7-7-7-7-7--|
|-5-5-5-5-5-5-5-5-|-5-5-5-5-5-5-5-5-|-5-5-5-5-5-5-5-5-|-5-5-5-5-5-5-5-5--|
|-----------------|-----------------|-----------------|------------------|


 Pre-Chorus Riff
  $
  Gtr IV
  G5
   / /     / /     / /     / /      / /   / /   / /   / /
  Gtr II
|--7-x--7--7-x--7--7-x--7--7-x--7-|-7-x-7-7-x-7-7-x-7-7-x-7-|
|-10-x-10-10-x-10-10-x-10-10-x-10-|-8-x-8-8-x-8-8-x-8-8-x-8-|
|---------------------------------|-------------------------|
|---------------------------------|-------------------------|
|---------------------------------|-------------------------|
|---------------------------------|-------------------------|

  G5
  / /   / /   / /   / /     / /   / /   / /   / /
|-7-x-7-7-x-7-7-x-7-7-x-7-|-7-x-7-7-x-7-7-x-7-7-x-7----||
|-7-x-7-7-x-7-7-x-7-7-x-7-|-8-x-8-8-x-8-8-x-8-8-x-8----||
|-------------------------|----------------------------||
|-------------------------|----------------------------||
|-------------------------|----------------------------||
|-------------------------|----------------------------||


 Chorus
  $$
  Play Riff A 2x


 Verse 2
  Gtrs I, III play Verse Riff 4x over:
  
  Gtr II
  Bm                Bmadd11             G
|-----------------|-------------------|-----------------|--------------------|
|-7---------------|-------------------|-----------------|--------------------|
|-4---------------|-------------------|-----------------|--------------------|
|-----------------|-------------------|-----------------|--------------------|
|-----------------|-------------------|-----------------|--------------------|
|-----------------|-------------------|-----------------|--------------------|
|
| Gtr IV                                                 "()"s mean hold note
|-----------------|-------------------|-5---------------|-(5)----------------|
|-----------------|-------------------|-----------------|--------------------|
|-----------------|-------------------|-----------------|--------------------|
|-----------------|-------------------|-----------------|--------------------|
|-----------------|-------------------|-----------------|--------------------|
|-----------------|-------------------|-----------------|--------------------|


  Bm                Bmadd11             G
|-7---------------|-(7)---------------|-7/10------------|-(10)---------------|
|-----------------|-------------------|-----------------|--------------------|
|-----------------|-------------------|-----------------|--------------------|
|-----------------|-------------------|-----------------|--------------------|
|-----------------|-------------------|-----------------|--------------------|
|-----------------|-------------------|-----------------|--------------------|


  Bm                  Bmadd11             G
|-10/14-----------|-(14)--------------|-14/10-----------|-(10)---------------|
|-----------------|-------------------|-----------------|--------------------|
|-----------------|-------------------|-----------------|--------------------|
|-----------------|-------------------|-----------------|--------------------|
|-----------------|-------------------|-----------------|--------------------|
|-----------------|-------------------|-----------------|--------------------|


  Bm                Bmadd11             G
|-7---------------|-(7)---------------|-7/10------------|-(10)---------------|
|-----------------|-------------------|-----------------|--------------------|
|-----------------|-------------------|-----------------|--------------------|
|-----------------|-------------------|-----------------|--------------------|
|-----------------|-------------------|-----------------|--------------------|
|-----------------|-------------------|-----------------|--------------------|
|
| Gtr V
|-----------------|-------------------|-----------------|--------------------|
|-------2-3-------|-------------------|-----------------|--------------------|
|-----2-----------|-------------------|-----------------|--------------------|
|---4-------------|-------------------|-----------------|--------------------|
|-2---------------|-------------------|-2---------------|--------------------|
|-----------------|-------------------|-----------------|--------------------|


  D5
  Gtr III                                                   D.S. al Coda ($)
|-10/14-----------|-(14)-------------|-(14)------------|-(14)-------------||
|-----------------|------------------|-----------------|------------------||
|-----------------|------------------|-----------------|------------------||
|-----------------|------------------|-----------------|------------------||
|-----------------|------------------|-----------------|------------------||
|-----------------|------------------|-----------------|------------------||
|
| Gtrs I
| PM- - - - - - - - - - - - - - - - - - - - - - - - - - - - - - - - - - -|
|-----------------|------------------|-----------------|------------------||
|-----------------|------------------|-----------------|------------------||
|-----------------|------------------|-----------------|------------------||
|-7-7-7-7-7-7-7-7-|--7-7-7-7-7-7-7-7-|-7-7-7-7-7-7-7-7-|--7-7-7-7-7-7-7-7-||
|-5-5-5-5-5-5-5-5-|--5-5-5-5-5-5-5-5-|-5-5-5-5-5-5-5-5-|--5-5-5-5-5-5-5-5-||
|-----------------|------------------|-----------------|------------------||


 [Go back and play Pre-Chorus and Chorus]

 Bridge (this is a two guitar harmonizing part, but
         if you only have one lead guitar, play the
         top staff)
    &
    (C)            (G/B)      (D)            (A/C#)
    Gtr II
||---------------|----------|--------------|------|
||o-5----5-------|----------|-7----7-------|------|
||-----------7p5-|-7--------|----------9p7-|-9----|
||---------------|----------|--------------|------|
||o--------------|----------|--------------|------|
||---------------|----------|--------------|------|
|
|   Gtr IV
||---------------|----------|--------------|------|
||o--------------|----------|--------------|------|
||--5----5---4p2-|-4--------|-7----7---6p4-|-6----|
||---------------|----------|--------------|------|
||o--------------|----------|--------------|------|
||---------------|----------|--------------|------|


  (F)           (C/E)        (G)                2x
|-------------|------------|----------|---------||
|-10----10----|-8----------|----------|--------o||
|-------------|--------9-9-|-7--------|-(7)-----||
|-------------|------------|----------|---------||
|-------------|------------|----------|--------o||
|-------------|------------|----------|---------||
|
|-------------|------------|----------|---------||
|-------------|------------|----------|--------o||
|-10----10----|-9------5-5-|-4--------|-(4)-----||
|-------------|------------|----------|---------||
|-------------|------------|----------|--------o||
|-------------|------------|----------|---------||


 Breakdown
                        G5
|---------|-10--------|-10/14------------|
|---------|-----------|------------------|
|--Rest---|-----------|------------------|
|---3-----|-----------|------------------|
|--bars---|-----------|------------------|
|---------|-----------|------------------|
|
|           Gtrs I       PM- - - - - - -|
|---------|-----------|------------------|
|---------|-----------|------------------|
|---------|-----------|------------------|
|---------|-----------|------------------|
|---------|-----------|--5-5-5-5-5-5-5-5-|
|---------|-----------|--3-3-3-3-3-3-3-3-|


  G5                                       D.S.S. al Dbl. Coda ($$)
|-14/15-------------|-15\14-------------|-14/19--------------||
|-------------------|-------------------|--------------------||
|-------------------|-------------------|--------------------||
|-------------------|-------------------|--------------------||
|-------------------|-------------------|--------------------||
|-------------------|-------------------|--------------------||
|
|  PM- - - - - - - - - - - - - - - - - - - - - - - - - - - -|
|-------------------|-------------------|--------------------||
|-------------------|-------------------|--------------------||
|-------------------|-------------------|--------------------||
|-------------------|-------------------|--------------------||
|--5--5-5-5-5-5-5-5-|--5--5-5-5-5-5-5-5-|--5--5-5-5-5-5-5-5--||
|--3--3-3-3-3-3-3-3-|--3--3-3-3-3-3-3-3-|--3--3-3-3-3-3-3-3--||


 [Go back and play Chorus]


 Outro
    &&
    Gtr IV
    B5                        A5
     /  /  /  /  /  /  /  /    /  /  /  /  /  /  /  /
    Gtr II (you may choose to play this on the e & B strings)
||--------------------------|-------------------------|
||o-15-15-15-15-15-15-15-15-|-14-14-14-14-14-14-14-14-|
||--14-14-14-14-14-14-14-14-|-14-14-14-14-14-14-14-14-|
||--------------------------|-------------------------|
||o-------------------------|-------------------------|
||--------------------------|-------------------------|
|
|   Gtr I
||--------------------------|-------------------------|
||o-------------------------|-------------------------|
||--------------------------|-------------------------|
||--------------------------|--------------7----------|
||o--7--9-----7--9-----7--9-|-----7--9----------------|
||--------------------------|-------------------------|


  G5
   /  /  /  /  /  /  /  /    /  /  /  /  /  /  /  /  3x
|-------------------------|--------------------------||
|-15-15-15-15-15-15-15-15-|-12-12-12-12-12-12-12-12-o||
|-16-16-16-16-16-16-16-16-|-12-12-12-12-12-12-12-12--||
|-------------------------|--------------------------||
|-------------------------|-------------------------o||
|-------------------------|--------------------------||
|
|                                                    3x
|-------------------------|--------------------------||
|-------------------------|-------------------------o||
|-------------------------|--------------------------||
|-------------------------|--------------------------||
|--7--9-----7--9-----7--9-|-----7--9-----9----------o||
|-------------------------|--------------------------||


  D5                        A/C#
   /  /  /  /  /  /  /  /    /  /  /  /  /  /  /  /
|-------------------------|-------------------------|
|-15-15-15-15-15-15-15-15-|-14-14-14-14-14-14-14-14-|
|-14-14-14-14-14-14-14-14-|-14-14-14-14-14-14-14-14-|
|-------------------------|-------------------------|
|-------------------------|-------------------------|
|-------------------------|-------------------------|
|
|-------------------------|-------------------------|
|-------------------------|-------------------------|
|-------------------------|-------------------------|
|--7--9-----7--9-----7--9-|-11--9-11----11----------|
|-------------------------|-------------------------|
|-------------------------|-------------------------|
|
| Gtr III
|-14----------------------|-12----------------------|
|-------------------------|-------------------------|
|-------------------------|-------------------------|
|-------------------------|-------------------------|
|-------------------------|-------------------------|
|-------------------------|-------------------------|


  B5                        G5
   /  /  /  /  /  /  /  /    /            
|-------------------------|-----------|---------*|
|-15-15-15-15-15-15-15-15-|-12--------|-(12)----*|
|-16-16-16-16-16-16-16-16-|-12--------|-(12)----*|
|-------------------------|-----------|---------*|
|-------------------------|-----------|---------*|
|-------------------------|-----------|---------*|
|
|-------------------------|-----------|---------*|
|-------------------------|-----------|---------*|
|-------------------------|-----------|---------*|
|-11-12----11-12----11-12-|-14--------|-(14)----*|
|-------------------------|-----------|---------*|
|-------------------------|-----------|---------*|
|
|-10----------------------|--7--------|--(7)----*|
|-------------------------|-----------|---------*|
|-------------------------|-----------|---------*|
|-------------------------|-----------|---------*|
|-------------------------|-----------|---------*|
|-------------------------|-----------|---------*|


Generated using Power Tab Editor by Brad Larsen

Comments about this tab

No comments/corrections found. Add your own

Complimentary Christian Ringtones
Dadamobile and CGR have teamed up to bring your favorite Christian artists right to your phone. Sign up today and get 10 complementary ringtones!
Tab Country
Did you know CGR has a sister site w/ country guitar tabs? Well we do! Its called Tab Country. It has a great archive with a lot of country tabs.
Rockin Tabs
Are you looking for a site that has rock guitar tabs? Then Rockintabs.com is the place for you. It is a budding site with many rock guitar tabs. Submit your tab today.
Tab Gallery
Tab Gallery has a compilation of christian, rock, and country tabs all in one place. Come visit us.