Guitar Tabs
song title    band name

Join Us Today!

Don't strum alone...
be a part of the largest online Christian music community. Browse thousands of guitar tabs and chat w/ musicians like yourself.


It's Free!

This tab has not yet been rated for accuracy.Sorry, but you must be logged in to rate this tab.
Click here to log-in, or you can click here to register.
(Registration is free)

All songs owned by corresponding publishing company. If you make copies of any song on this website, be sure to report your usage to CCLI.
Submitted by: bradymc

Title: Shine On
Album: Undone
Artist: MercyMe

Intro
C    F    C    F

Verse
Am    Dm    C    G    Dm
F     G

Chorus
C    F    Dm    F

Bridge
Dm    G    Dm    G
Dm    F    G

Comments about this tab

fallout - 2005-05-07

Does anybody know the solo for this song?


THewson - 2005-10-24

Here's as close as I can get to the solo:
e------------------------------------------------------------------
B-3/8--8\5-3-5-5--\8-\13-12-12-----3/8--8\5-3-5-5--\8-\13-12-12-8--
G------------------------------9-----------------------------------
D------------------------------------------------------------------
A------------------------------------------------------------------
E------------------------------------------------------------------

e---------------------------------
B-3/8--8\5-3-5-5--\8-\13-12\8/15v-
G---------------------------------
D---------------------------------
A---------------------------------
E---------------------------------

e-----------------------------------------------
B-----------------------------------------------
G-----------------------------------------------
D-------10----10-12-14-12-14b15r14-12-12-10-10v-
A-10-12----12-----------------------------------
E-----------------------------------------------

e------------------12------------------------------
B-15b17-15v--13-15----13-15-13-----------------8---
G------------------------------14----------9\5---9-
D--------------------------------------------------
A--------------------------------------------------
E--------------------------------------------------

e-------------------------------------------
B-------------------------------------------
G-------------------------------------------
D----10-12-10-12b13r12-10-12\15-14-12p10h12-
A-12----------------------------------------
E-------------------------------------------

e----------------------------------------------------------------
B-17-20b22r20--17-20-18--17-18-17-15-17-15--23b25r23-17-20-17-15-
G----------------------------------------------------------------
D----------------------------------------------------------------
A----------------------------------------------------------------
E----------------------------------------------------------------

*He does something else here, but I can't figure out what... it's too low*

e----------------------------15v-
B----13h15-15b17r15p13h15-13-----
G-12-----------------------------
D--------------------------------
A--------------------------------
E--------------------------------

Well that's as much as I'm gonna figure out at 1am.
I apologise if any of it's wrong.
God Bless...
Tim


fallout - 2005-11-13

Thank you THewson,you are a blessing.


Add a comment/correction

Complimentary Christian Ringtones
Dadamobile and CGR have teamed up to bring your favorite Christian artists right to your phone. Sign up today and get 10 complementary ringtones!
Tab Country
Did you know CGR has a sister site w/ country guitar tabs? Well we do! Its called Tab Country. It has a great archive with a lot of country tabs.
Rockin Tabs
Are you looking for a site that has rock guitar tabs? Then Rockintabs.com is the place for you. It is a budding site with many rock guitar tabs. Submit your tab today.
Tab Gallery
Tab Gallery has a compilation of christian, rock, and country tabs all in one place. Come visit us.