Guitar Tabs
song title    band name

Join Us Today!

Don't strum alone...
be a part of the largest online Christian music community. Browse thousands of guitar tabs and chat w/ musicians like yourself.


It's Free!

This tab has not yet been rated for accuracy.Sorry, but you must be logged in to rate this tab.
Click here to log-in, or you can click here to register.
(Registration is free)

All songs owned by corresponding publishing company. If you make copies of any song on this website, be sure to report your usage to CCLI.
Submitted by: yasdnil85

Title: How to Start a Fire
Artist: Further Seems Forever
Tabbed by: Lindsay Kennedy

You can download my guitar pro 4 version of this tab with the time
changes (and bass!) at www.mysongbook.com

I've tried my best to make this as accurate as possible.There are
alot of time changes in this song.

This is a complex song, therefore a long tab...I hope I don't lose you!
It's all in order and all tabs coresspond unless mentioned.


Tuning Down 1/2 Step


"Let's Set this City Ablaze!"

Guitar 1 - x2
D#|---------------------------------|-----------------------------------------|
A#|---------------------------------|-----------------------------------------|
F#|-7-7-7-7-7-7-7-7-7-7-7-7-7-7-7-7-|----------------10-10-10-------10-10-9-9-|
C#|---------------------------------|-8-8-8-10-10-10----------7-7-7-----------|
G#|-5-5-5-5-5-5-5-5-5-5-5-5-5-5-5-5-|----------------8--8--8--------8--8--7-7-|
D#|---------------------------------|-6-6-6-8--8--8-----------5-5-5-----------|

D#|---------------------------------|----------------------------------------------------|
A#|---------------------------------|----------------------------------------------------|
F#|-7-7-7-7-7-7-7-7-7-7-7-7-7-7-7-7-|-14-14-14-12-12-12-15--14--17-17-17-15-15-15-14--15-|
C#|---------------------------------|----------------------------------------------------|
G#|-5-5-5-5-5-5-5-5-5-5-5-5-5-5-5-5-|-12-12-12-10-10-10-13--12--15-15-15-13-13-13-12--13-|
D#|---------------------------------|----------------------------------------------------|
                                                                              
D#|-------------------------------------------------|
A#|-------------------------------------------------|
F#|-12-12-12-12-12-12-12-12-12-12-12-12-12-12-12-12-|
C#|-------------------------------------------------|
G#|-10-10-10-10-10-10-10-10-10-10-10-10-10-10-10-10-|
D#|-------------------------------------------------|


Guitar 2 (TAB doesn't perfectly match - just play the chord as many times as needed!) - x2
D#|---------------------------------|---------------------------------|
A#|---------------------------------|---------------------------------|
F#|-7-7-7-7-7-7-7-7-7-7-7-7-7-7-7-7-|-7-7-7-7-7-7-7-7-7-7-7-7-7-7-7-7-|
C#|-7-7-7-7-7-7-7-7-7-7-7-7-7-7-7-7-|-7-7-7-7-7-7-7-7-7-7-7-7-7-7-7-7-|
G#|-5-5-5-5-5-5-5-5-5-5-5-5-5-5-5-5-|-5-5-5-5-5-5-5-5-5-5-5-5-5-5-5-5-|
D#|---------------------------------|---------------------------------|

D#|---------------------------------|---------------------------------|
A#|---------------------------------|---------------------------------|
F#|-7-7-7-7-7-7-7-7-7-7-7-7-7-7-7-7-|-7-7-7-7-7-7-7-7-7-7-7-7-7-7-7-7-|
C#|-7-7-7-7-7-7-7-7-7-7-7-7-7-7-7-7-|-7-7-7-7-7-7-7-7-7-7-7-7-7-7-7-7-|
G#|-5-5-5-5-5-5-5-5-5-5-5-5-5-5-5-5-|-5-5-5-5-5-5-5-5-5-5-5-5-5-5-5-5-|
D#|---------------------------------|---------------------------------|

D#|---------------------------------|
A#|---------------------------------|
F#|---------------------------------|
C#|-5-5-5-5-5-5-5-5-5-5-5-5-5-5-5-5-|
G#|-5-5-5-5-5-5-5-5-5-5-5-5-5-5-5-5-|
D#|-3-3-3-3-3-3-3-3-3-3-3-3-3-3-3-3-|



"Well this..."

Guitar 1
D#|------------------------------------------|------------------------------------|
A#|-1-----------------3-----------------3----|-3-----------------3-----3----------|
F#|----2-----2-----------2-----2-----------2-|----2-----2-----------2-----2-----2-|
C#|-------3-----3-----------3-----3----------|-------3-----3-----------------3----|
G#|----------------1-----------------1-------|----------------1-------------------|
D#|------------------------------------------|------------------------------------|


Guitar 2
D#|------------------------------------------|------------------------------------|
A#|------------------------------------------|------------------------------------|
F#|-3-----------------3--------3--3-----3----|-3-----------------3--------3--3----|
C#|-3--------5-----5--3--------3--3--x--3----|-3--------5-----5--3--------3--3----|
G#|-1--------5-----5--1--------1--1--x--1----|-1--------5-----5--1--------1--1----|
D#|----------3-----3-------------------------|----------3-----3-------------------|



"...to Feel Alive..."                                                     

Guitar 1 
D#|-------------------------------------------------------------|
A#|-------------------------------------------------------------|
F#|---------------0------------------------------0----7---------|
C#|--------7----------------0-------------7----------------8----|
G#|-5------------------4----------------------------------------| x2
D#|--------------------------------6----------------------------|


Guitar 2
D#|-------------------------------------------------------------|
A#|-------------------------------------------------------------|
F#|-------------------------------------------------------------|
C#|---------------------------------------------------7-7-7-----|
G#|---------------------------------------------------5-5-5-----| (Second time through)
D#|-------------------------------------------------------------|


Guitar 1
D#|-------------------------------------------------------------|
A#|-------------------------------------------------------------|
F#|---------------0------------------------------0----7---------|
C#|--------7----------------0-------------7----------------8----|
G#|-5------------------4----------------------------------------| x3
D#|--------------------------------6----------------------------|


Guitar 2 (Palm Muted) (TAB Doesn't line up with above)
D#|-------------------------------------------------------------------------|
A#|-------------------------------------------------------------------------|
F#|-------------------------------------------------------------------------|
C#|-------------------------------------------------------------------------|
G#|-12-12-12-13-13-13-12-12-12-10-12-10-12-12-12-13-13-13-12-12-12-10-12-10-| x3
D#|-------------------------------------------------------------------------|
                                                                  

Guitar 1
D#|------------------------------|
A#|------------------------------|
F#|---------------0----7-7-7-----|
C#|--------7-----------7-7-7-----|
G#|--------------------5-5-5-----|
D#|-6----------------------------|


Guitar 2 (Palm Muted) (TAB Doesn't line up with above)
D#|-------------------------------------|
A#|-------------------------------------|
F#|-------------------------------------|
C#|-------------------------------------|
G#|-12-12-12-13-13-13-12-12-12-10-12-10-|
D#|-------------------------------------|

     
Guitar 1
D#|-------------------------------------------------------------------------------|
A#|----------6--5--3--5--3--------------0--1--3--5----------------------------------|
F#|-------7-----------------2--5--4--2-------------5-----7--------------------------|
C#|----7-------------------------------------------5-----7-----8-----8------8-8-8---|
G#|-5----------------------------------------------3-----5-----8-----8------8-8-8---|
D#|------------------------------------------------------------6-----6------6-6-6---|


Guitar 2 (Clean effect)
D#|---------------------------------------------------------------------------------|
A#|--6----------------5----------------------------1-----------3--------------------|
F#|--7----------------5----------------------------2-----------3--------------------|
C#|--7----------------5----------------------------2-----------3--------------------|
G#|---------------------------------------------------------------------------------|
D#|---------------------------------------------------------------------------------|



"Well This..."

Guitar 1 - x2
D#|------------------------------------------|------------------------------------|
A#|-1-----------------3-----------------3----|-3-----------------3-----3----------|
F#|----2-----2-----------2-----2-----------2-|----2-----2-----------2-----2-----2-|
C#|-------3-----3-----------3-----3----------|-------3-----3-----------------3----|
G#|----------------1-----------------1-------|----------------1-------------------|
D#|------------------------------------------|------------------------------------|


Guitar 2 - x2
D#|------------------------------------------|------------------------------------|
A#|------------------------------------------|------------------------------------|
F#|-3-----------------3--------3--3-----3----|-3-----------------3--------3--3----|
C#|-3--------5-----5--3--------3--3--x--3----|-3--------5-----5--3--------3--3----|
G#|-1--------5-----5--1--------1--1--x--1----|-1--------5-----5--1--------1--1----|
D#|----------3-----3-------------------------|----------3-----3-------------------|  



"Consider This..."                                                                             

Guitar 1
D#|------------------------------------------------------------|
A#|------------------------------------------------------------|
F#|---------------0-----------------------------0----7---------|
C#|--------7----------------0------------7----------------8----|
G#|-5------------------4---------------------------------------| x3
D#|-------------------------------6----------------------------|


Guitar 2 (Palm Muted) (TAB Doesn't line up with above)
D#|-------------------------------------------------------------------------|
A#|-------------------------------------------------------------------------|
F#|-------------------------------------------------------------------------|
C#|-------------------------------------------------------------------------|
G#|-12-12-12-13-13-13-12-12-12-10-12-10-12-12-12-13-13-13-12-12-12-10-12-10-| x3
D#|-------------------------------------------------------------------------|
                                                                  

Guitar 1
D#|---------------------------------------|
A#|---------------------------------------|
F#|---------------0----7-7-7-----7--7-----|
C#|--------7-----------7-7-7-----7--7-----|
G#|--------------------5-5-5-----5--5-----|
D#|-6-------------------------------------|


Guitar 2 (Palm Muted) (TAB Doesn't line up with above)
D#|--------------------------------------------|
A#|--------------------------------------------|
F#|-------------------------7-7-7-----7--7-----|
C#|-------------------------7-7-7-----7--7-----|
G#|-12-12-12-13-13-13-12-12-5-5-5-----5--5-----|
D#|--------------------------------------------|



"The last time..."

Guitar 1
D#|------------------------------------------|------------------------------------|
A#|-1-----------------3-----------------3----|-3-----------------3-----3----------|
F#|----2-----2-----------2-----2-----------2-|----2-----2-----------2-----2-----2-|
C#|-------3-----3-----------3-----3----------|-------3-----3-----------------3----|
G#|----------------1-----------------1-------|----------------1-------------------| x3
D#|------------------------------------------|------------------------------------|


Guitar 2
D#|------------------------------------------|------------------------------------|
A#|------------------------------------------|------------------------------------|
F#|-3-----------------3--------3--3-----3----|-3-----------------3--------3--3----|
C#|-3--------5-----5--3--------3--3--x--3----|-3--------5-----5--3--------3--3----|
G#|-1--------5-----5--1--------1--1--x--1----|-1--------5-----5--1--------1--1----| x3
D#|----------3-----3-------------------------|----------3-----3-------------------|  
 

Guitar 1
D#|------------------------------------------------|
A#|-1-----------------------3----------------------|
F#|----2-----2-----------2-----2-----2--2-----0----|
C#|-------3-----3-----------------3--------3-----3-|
G#|----------------1-------------------------------|
D#|------------------------------------------------|


Guitar 2                                     
D#|------------------------------------------------|                                         
A#|------------------------------------------------|
F#|-3-----------------3--------3--3----------------|
C#|-3--------5-----5--3--------3--3----------------|
G#|-1--------5-----5--1--------1--1----------------|
D#|----------3-----3-------------------------------|

       

"Catching the fruits of our labor..."                                                                

Guitar 1 (Longer pauses than indicated)
D#|------------------------------------|------------------------------------|
A#|------5--6-----------5--6-----------|------5--6-----------5--6-----------|
F#|------------------------------------|------------------------------------|
C#|-3----------------------------------|------------------------------------|
G#|----------------5-------------------|-3----------------------------------|
D#|------------------------------------|----------------6-------------------|


Guitar 2
D#|------------------------------------|------------------------------------|
A#|------------------------------------|------------------------------------|
F#|----------------7-------------------|------------------------------------|
C#|-8--------------7-------------------|-10-------------8-------------------|
G#|-8--------------5-------------------|-10-------------8-------------------|
D#|-6----------------------------------|-8--------------6-------------------|

  
Guitar 1                   
D#|------------------------------------|
A#|------5--6-----------5--6-----------|
F#|------------------------------------|
C#|------------------------------------|
G#|-5--------------3-------------------|
D#|------------------------------------|


Guitar 2
D#|------------------------------------|
A#|------------------------------------|
F#|-7----------------------------------|
C#|-7--------------10------------------|
G#|-5--------------10------------------|
D#|----------------8-------------------|

           
Guitar 1
D#|---------------------------------------------|
A#|---------------------------------------------|
F#|-3--------3-----3------------3-3-3-3-3-3-3-3-|
C#|-3--------3-----3--5---------3-3-3-3-3-3-3-3-|
G#|-1--------1-----1--5---------1-1-1-1-1-1-1-1-|
D#|-------------------3-------------------------|  


Guitar 2
D#|---------------------------------------------|
A#|---------------------------------------------|
F#|-3--------3-----3------------3-3-3-3-3-3-3-3-|
C#|-3--------3-----3--5---------3-3-3-3-3-3-3-3-|
G#|-1--------1-----1--5---------1-1-1-1-1-1-1-1-|
D#|-------------------3-------------------------| 


[Bass Part]


"Lets set this city ablaze!"

Guitar 1 
D#|-----------------------------------------|---------------------------------|
A#|-----------------------------------------|---------------------------------|
F#|----------------10-10-10-------10-10-9-9-|-7-7-7-7-7-7-7-7-7-7-7-7-7-7-7-7-|
C#|-8-8-8-10-10-10----------7-7-7-----------|-7-7-7-7-7-7-7-7-7-7-7-7-7-7-7-7-|
G#|----------------8--8--8--------8--8--7-7-|-5-5-5-5-5-5-5-5-5-5-5-5-5-5-5-5-|
D#|-6-6-6-8--8--8-----------5-5-5-----------|---------------------------------|

D#|----------------------------------------------------|
A#|----------------------------------------------------|
F#|-14-------12-------15--14--17-17-17-15-15-15-14--15-|
C#|----------------------------------------------------|
G#|-12-------10-------13--12--15-15-15-13-13-13-12--13-| x2
D#|----------------------------------------------------|

D#|-------------------------------------------------|
A#|-------------------------------------------------|
F#|-12-12-12-12-12-12-12-12-12-12-12-12-12-12-12-12-|
C#|-------------------------------------------------|
G#|-10-10-10-10-10-10-10-10-10-10-10-10-10-10-10-10-|
D#|-------------------------------------------------|


Guitar 2 (TAB doesn't perfectly match - just play the chord as many times as needed!)
D#|---------------------------------|---------------------------------|
A#|---------------------------------|---------------------------------|
F#|-7-7-7-7-7-7-7-7-7-7-7-7-7-7-7-7-|-7-7-7-7-7-7-7-7-7-7-7-7-7-7-7-7-|
C#|-7-7-7-7-7-7-7-7-7-7-7-7-7-7-7-7-|-7-7-7-7-7-7-7-7-7-7-7-7-7-7-7-7-|
G#|-5-5-5-5-5-5-5-5-5-5-5-5-5-5-5-5-|-5-5-5-5-5-5-5-5-5-5-5-5-5-5-5-5-|
D#|---------------------------------|---------------------------------|

D#|---------------------------------|
A#|---------------------------------|
F#|-7-7-7-7-7-7-7-7-7-7-7-7-7-7-7-7-|
C#|-7-7-7-7-7-7-7-7-7-7-7-7-7-7-7-7-|
G#|-5-5-5-5-5-5-5-5-5-5-5-5-5-5-5-5-| x2
D#|---------------------------------|

D#|---------------------------------|
A#|---------------------------------|
F#|---------------------------------|
C#|-5-5-5-5-5-5-5-5-5-5-5-5-5-5-5-5-|
G#|-5-5-5-5-5-5-5-5-5-5-5-5-5-5-5-5-|
D#|-3-3-3-3-3-3-3-3-3-3-3-3-3-3-3-3-|



End

Guitar 1                                                                      
D#|--------------------------|
A#|--------------------------|
F#|-14----12--12--10--12--10-|
C#|--------------------------|
G#|-12----10--10--8---10--8--|
D#|--------------------------|


Guitar 2                                                                           
D#|--------------------------|
A#|--------------------------|
F#|-3----3---3------------3--|
C#|-3----3---3---5----5---3--|
G#|-1----1---1---5----5---1--|
D#|--------------3----3------|

Comments about this tab

ephesians5:14 - 2005-12-24

Uh, wow. no complaints here, sounds great!. Thnx!
in His love,
-StupidLyss-


Add a comment/correction

Complimentary Christian Ringtones
Dadamobile and CGR have teamed up to bring your favorite Christian artists right to your phone. Sign up today and get 10 complementary ringtones!
Tab Country
Did you know CGR has a sister site w/ country guitar tabs? Well we do! Its called Tab Country. It has a great archive with a lot of country tabs.
Rockin Tabs
Are you looking for a site that has rock guitar tabs? Then Rockintabs.com is the place for you. It is a budding site with many rock guitar tabs. Submit your tab today.
Tab Gallery
Tab Gallery has a compilation of christian, rock, and country tabs all in one place. Come visit us.