Guitar Tabs
song title    band name

Join Us Today!

Don't strum alone...
be a part of the largest online Christian music community. Browse thousands of guitar tabs and chat w/ musicians like yourself.


It's Free!

This tab has not yet been rated for accuracy.Sorry, but you must be logged in to rate this tab.
Click here to log-in, or you can click here to register.
(Registration is free)

All songs owned by corresponding publishing company. If you make copies of any song on this website, be sure to report your usage to CCLI.
Whisper Softly
Chasing Furies
Lyrics and music by Sarah Meeker
Copyright 1999 birdwing music 
www.sparrowrecords.com

tabbed by holy_soldier_911@hotmail.com

I think this tune is in the key of Em (relative minor of G)

Itís actually pretty simple guitar wise, I think i got most of it
down except for the chorus, things get muddy in there.  Thanks to the
guy who did the previous tab, heh i just copied the lyrics and stuff =) 

Basically its the same picking pattern for the verse, and the same chord
shape, just moved.
I love the dissonance in this song, its so cool. 

This twice
(Em)
e----12--------12-
b-------0----0----
G---------12------
D-----------------
A-----------------
E-12--------------

This twice
(Bm)
e---7-------7-----
b-----0---0-------
G-------7---------
D-----------------
A-----------------
E-7---------------

This twice
(Am add2)
e---5-------5-----
b-----0---0-------
G-------5---------
D-----------------
A-----------------
E-5---------------

This twice
(Bm)
e---7-------7-----
b-----0---0-------
G-------7---------
D-----------------
A-----------------
E-7---------------
note*
on the second time of the last Bm, instead of playing the bass B you
play the D instead(...well somethings making the D there, maybe its
the bass):
(Bm)
e---7-------7-----
b-----0---0-------
G-------7---------
D-----------------
A-5---------------
E-----------------

Done!

For the chorus, its a weird.  I donít know exactly whats going on but the
G is sometimes Gmaj7, and the D/F# gets a lot of improv on it, like adding
the high A on the e string.

I do know the Em is played like this though

e----------------
b----------------
G-----0----------
D-------4--------
A---2------------
E-0--------------

(verse1)
Em      Bm

Amin    Bm 


(chorus)
G   F#   Emin   G   F#  Emin

G   F#   Emin   G   F#  Emin


(verse2)
same as verse 1

(chorus, end)

Comments about this tab

No comments/corrections found. Add your own

Complimentary Christian Ringtones
Dadamobile and CGR have teamed up to bring your favorite Christian artists right to your phone. Sign up today and get 10 complementary ringtones!
Tab Country
Did you know CGR has a sister site w/ country guitar tabs? Well we do! Its called Tab Country. It has a great archive with a lot of country tabs.
Rockin Tabs
Are you looking for a site that has rock guitar tabs? Then Rockintabs.com is the place for you. It is a budding site with many rock guitar tabs. Submit your tab today.
Tab Gallery
Tab Gallery has a compilation of christian, rock, and country tabs all in one place. Come visit us.