Guitar Tabs
song title    band name

Join Us Today!

Don't strum alone...
be a part of the largest online Christian music community. Browse thousands of guitar tabs and chat w/ musicians like yourself.


It's Free!

This tab has been rated a 3.00 out of 5 for accuracy. (1 vote)Sorry, but you must be logged in to rate this tab.
Click here to log-in, or you can click here to register.
(Registration is free)

All songs owned by corresponding publishing company. If you make copies of any song on this website, be sure to report your usage to CCLI.
Submitted by: guitar man4

Numb
Tait


This song is in drop-d

Intro and Verse:
    palm mute        
e----------------------------------                 e------------------------
B----------------------------------                 B------------------------
G----------------------------------  x3, then this: G------------------------
D--0--0--0---0--0---0-1-0-1-2-1-0-0                 D--3-3-3--3-3-1-1-x-x-x-x
A--0--0--0---0--0---0-1-0-1-2-1-0-0                 A--3-3-3--3-3-1-1-x-x-x-x
D--0--0--0---0--0---0-1-0-1-2-1-0-0                 D--3-3-3--3-3-1-1-x-x-x-x

Prechorus:

e------------------------
B------------------------
G------------------------
D--12----8----5----8---10
A--12----8----5----8---10
D--12----8----5----8---10

Chorus:

e--------------------------------------------
B--------------------------------------------
G--------------------------------------------
D-12-12-12-12-10-10-10-10-12-12-12-12-8-8-8-8
A-12-12-12-12-10-10-10-10-12-12-12-12-8-8-8-8
D-12-12-12-12-10-10-10-10-12-12-12-12-8-8-8-8

e----------------------------------------
B----------------------------------------
G----------------------------------------
D-12-12-12-12-10-10-10-10-8-8-8-8-8-8-8-8
A-12-12-12-12-10-10-10-10-8-8-8-8-8-8-8-8
D-12-12-12-12-10-10-10-10-8-8-8-8-8-8-8-8

This is my first tab, so I don't expect everything to be right. Corrections
are welcome. I can't figure out the bridge, but if anyone can please post it.
Enjoy :)                       Tabbed by keith p

Comments about this tab

guitar man4 - 2004-10-06

This is my tab, and I made a mistake in the chorus. Instead of the final
power chord on fret 8 it sounds like it should be more on fret 7.


eddieg - 2005-02-02

sorry to tell you but there are quite a few mistakes in this tab. i admit i don't have all of it tabbed yet but i hope to figure it out. first of all its in drop c so you start on the second fret. for further corrections see my tab


Asa Gaston - 2006-06-13

Nice try kido, this wasn't a complete failure


Add a comment/correction

Complimentary Christian Ringtones
Dadamobile and CGR have teamed up to bring your favorite Christian artists right to your phone. Sign up today and get 10 complementary ringtones!
Tab Country
Did you know CGR has a sister site w/ country guitar tabs? Well we do! Its called Tab Country. It has a great archive with a lot of country tabs.
Rockin Tabs
Are you looking for a site that has rock guitar tabs? Then Rockintabs.com is the place for you. It is a budding site with many rock guitar tabs. Submit your tab today.
Tab Gallery
Tab Gallery has a compilation of christian, rock, and country tabs all in one place. Come visit us.