Guitar Tabs
song title    band name

Join Us Today!

Don't strum alone...
be a part of the largest online Christian music community. Browse thousands of guitar tabs and chat w/ musicians like yourself.


It's Free!

This tab has been rated a 4.44 out of 5 for accuracy. (9 votes)Sorry, but you must be logged in to rate this tab.
Click here to log-in, or you can click here to register.
(Registration is free)

All songs owned by corresponding publishing company. If you make copies of any song on this website, be sure to report your usage to CCLI.
Submitted by: PenetcostRock86

Artist : 12 Stones
Album  : 12 Stones
Song   : Broken

This is the Full version with both Guitars playing and went through the hole 
song from begining to end so people won't get confused. I believe this is 
completely Correct.

Tuning : 

Guitar 1 :

D A D G B E

Guitar 2 :

D A D G B E

Intro:

Guitar 1 : Distortion

E|---------------------------------------------------|
B|---------------------------------------------------|
G|---------------------------------------------------|
D|--0-0-x-x-x-0-0-x-8-10-10-8-8-x-x-x-8-8-x-10-10-10-|
A|--0-0-x-x-x-0-0-x-8-10-10-8-8-x-x-x-8-8-x-10-10-10-|
D|--0-0-x-x-x-0-0-x-8-10-10-8-8-x-x-x-8-8-x-10-10-10-|

Guitar 1 & 2 Together.

E|---------------------------------------------------|
B|---------------------------------------------------|
G|---------------------------------------------------|
D|--0-0-x-x-x-0-0-x-8-10-10-8-8-x-x-x-8-8-x-10-10-10-|
A|--0-0-x-x-x-0-0-x-8-10-10-8-8-x-x-x-8-8-x-10-10-10-|
D|--0-0-x-x-x-0-0-x-8-10-10-8-8-x-x-x-8-8-x-10-10-10-|

Guitar 2 : Distortion

E|---------------------------------------------------|
B|---------------------------------------------------|
G|--7-7-7-7-7-7--9-9--3-3-3-3-3-3--5-5---------------|
D|--x-x-x-x-x-x--x-x--x-x-x-x-x-x--x-x---------------|
A|--5-5-5-5-5-5--7-7--1-1-1-1-1-1--3-3---------------|
D|---------------------------------------------------|





Verse 1 : 6x's

Guitar 1 : Clean / Chorus Pedal

E|---------------------------------------------------|
B|---------------------------------------------------|
G|-----2---------------------------------------------|
D|---3---3---2-3-2-3----0-3------3-------------------|
A|-5-------5---------1------1-/-3--------------------|
D|---------------------------------------------------|




Chorus : 4x's

Guitar 1 : Distortion

E|---------------------------------------------------|
B|---------------------------------------------------|
G|---------------------------------------------------|
D|--0-0-x-x-x-0-0-x-8-10-10-8-8-x-x-x-8-8-x-10-10-10-|
A|--0-0-x-x-x-0-0-x-8-10-10-8-8-x-x-x-8-8-x-10-10-10-|
D|--0-0-x-x-x-0-0-x-8-10-10-8-8-x-x-x-8-8-x-10-10-10-|

Guitar 1 & 2 Together on the 3rd & 4th time through.

E|---------------------------------------------------|
B|---------------------------------------------------|
G|---------------------------------------------------|
D|--0-0-x-x-x-0-0-x-8-10-10-8-8-x-x-x-8-8-x-10-10-10-|
A|--0-0-x-x-x-0-0-x-8-10-10-8-8-x-x-x-8-8-x-10-10-10-|
D|--0-0-x-x-x-0-0-x-8-10-10-8-8-x-x-x-8-8-x-10-10-10-|

Guitar 2 :

E|---------------------------------------------------|
B|---------------------------------------------------|
G|--7-7-7-7-7-7--9-9--3-3-3-3-3-3--5-5---------------|
D|--x-x-x-x-x-x--x-x--x-x-x-x-x-x--x-x---------------|
A|--5-5-5-5-5-5--7-7--1-1-1-1-1-1--3-3---------------|
D|---------------------------------------------------|




Verse 2 : 4x's

Guitar 1 : Clean / Chorus Pedal

E|---------------------------------------------------|
B|---------------------------------------------------|
G|-----2---------------------------------------------|
D|---3---3---2-3-2-3----0-3------2---3---------------|
A|-5-------5---------1------1-h3---3-----------------|
D|---------------------------------------------------|





Chorus : 4x's

Guitar 1 : Distortion

E|---------------------------------------------------|
B|---------------------------------------------------|
G|---------------------------------------------------|
D|--0-0-x-x-x-0-0-x-8-10-10-8-8-x-x-x-8-8-x-10-10-10-|
A|--0-0-x-x-x-0-0-x-8-10-10-8-8-x-x-x-8-8-x-10-10-10-|
D|--0-0-x-x-x-0-0-x-8-10-10-8-8-x-x-x-8-8-x-10-10-10-|

Guitar 1 & 2 Together on the 3rd & 4th time through.

E|---------------------------------------------------|
B|---------------------------------------------------|
G|---------------------------------------------------|
D|--0-0-x-x-x-0-0-x-8-10-10-8-8-x-x-x-8-8-x-10-10-10-|
A|--0-0-x-x-x-0-0-x-8-10-10-8-8-x-x-x-8-8-x-10-10-10-|
D|--0-0-x-x-x-0-0-x-8-10-10-8-8-x-x-x-8-8-x-10-10-10-|

Guitar 2 :

E|---------------------------------------------------|
B|---------------------------------------------------|
G|--7-7-7-7-7-7--9-9--3-3-3-3-3-3--5-5---------------|
D|--x-x-x-x-x-x--x-x--x-x-x-x-x-x--x-x---------------|
A|--5-5-5-5-5-5--7-7--1-1-1-1-1-1--3-3---------------|
D|---------------------------------------------------|





Bridge : 4x's

Guitar 1 : Distortion

|------------------------------------------|
|------------------------------------------|
|-----10-10-10-10/12-12-----10\9-9-9-9-7-7-|
|-0-0--x--x--x--x--x--x-3-3--x-x-x-x-x-x-x-|
|-0-0--8--8--8--8/10-10-3-3--8\7-7-7-7-5-5-|
|-0-0-------------------3-3----------------|

Break / Solo :

Guitar 1 + 2 : 2x's
  Palm Muted
|---------------------------------------------------------------------|
|---------------------------------------------------------------------|
|---------------------------------------------------------------------|
|---------------------------------------------------10-10-8-8-7-7-8-8-|
|-----8-8-7-7-8-8-10-10-8-8-7-7-5-5-----8-8-7-7-8-8-------------------|
|-8-8-------------------------------8-8-------------------------------|

Guitar 2 :                        
  Palm Muted                      Ring.
|---------------------------------------------------------------------|
|---------------------------------------------------------------------|
|---------------------------------------------------------------------|
|-0-0-----------------------------10----------------------------------|
|-0-0-----------------------------10----------------------------------|
|-0-0-----------------------------10----------------------------------|

Guitar 1 & 2 play together same Bar : 2x's

|---------------------------------------------------------------------|
|---------------------------------------------------------------------|
|---------------------------------------------------------------------|
|---------------------------------------------------10-10-8-8-7-7-8-8-|
|-----8-8-7-7-8-8-10-10-8-8-7-7-5-5-----8-8-7-7-8-8-------------------|
|-8-8-------------------------------8-8-------------------------------|




Chorus : 6x's

Guitar 1 : Distortion

E|---------------------------------------------------|
B|---------------------------------------------------|
G|---------------------------------------------------|
D|--0-0-x-x-x-0-0-x-8-10-10-8-8-x-x-x-8-8-x-10-10-10-|
A|--0-0-x-x-x-0-0-x-8-10-10-8-8-x-x-x-8-8-x-10-10-10-|
D|--0-0-x-x-x-0-0-x-8-10-10-8-8-x-x-x-8-8-x-10-10-10-|

Guitar 1 & 2 Together for the last 4x's

E|---------------------------------------------------|
B|---------------------------------------------------|
G|---------------------------------------------------|
D|--0-0-x-x-x-0-0-x-8-10-10-8-8-x-x-x-8-8-x-10-10-10-|
A|--0-0-x-x-x-0-0-x-8-10-10-8-8-x-x-x-8-8-x-10-10-10-|
D|--0-0-x-x-x-0-0-x-8-10-10-8-8-x-x-x-8-8-x-10-10-10-|

Guitar 2 :

E|---------------------------------------------------|
B|---------------------------------------------------|
G|--7-7-7-7-7-7--9-9--3-3-3-3-3-3--5-5---------------|
D|--x-x-x-x-x-x--x-x--x-x-x-x-x-x--x-x---------------|
A|--5-5-5-5-5-5--7-7--1-1-1-1-1-1--3-3---------------|
D|---------------------------------------------------|




Outro:

|--------------------|
|--------------------|
|--------------------|
|-0------------------|
|-0------------------|
|-0------------------|


Comments about this tab

njsk8rboy - 2004-09-20

intro
------------------------
------------------------
-4--7-5-----------------
-2--7-5-----------------
-2--5-3-----------------
-0----------------------

i have the tab book which helps alot


Shebz - 2004-10-29

actually the solo goes like this:

~ = hold note

E------------------------------------------------------------------------|
B----------------------------55------------------------------------------|
G----------55------------------887788-----------55-----------------5~~--|
D-55887788--887755---887788-----------55887788--887755----887788-----|
A--------------------88------------------------------------88------------|
E-------------------------------------------------------------------------|


Shebz - 2004-10-29

forget that one!


Shebz - 2004-10-29

it's :

E|------------------------------------
B|---------------------------55-------
G|----------55-----------------887788
D|-55887788--887755--887788--------
A|-------------------88--------------
E|------------------------------------

E|---------------------------------
B|---------------------------------
G|----------55----------------5~~-
D|-55887788--887755---887788----
A|-------------------88------------
E|---------------------------------

sorry bout the other one!


kayatikRocker - 2005-01-12

um....first time posting here....but there is only one guitarist in 12 stones, for those that didn't know....although the tab seems correct, its just a mental note I guess


Shebz - 2005-01-20

where have u been??!! haven't u seen their videos?!! they 2 (two) (dos) guitarists. I kno for a fact cuz i went to their concert for NOJ @ Disney


chrisprincecp - 2005-01-24

Actually, you are both right. That is, there are two guitarist in 12 stones, but one of them plays bass. Eric Weaver plays electric lead and rythim. Greg Trammell plays Bass (even in the video). Now live is a different story. Like alot of bands do, they will overdub several guitars on there album. Then to get the same sound live, a lot of bands will have an "extra" guitarist to fill in. Anyways, just some useless info. Peace.


chrisprincecp - 2005-01-24

Like how i spelled rhythem??!! lol


burningfaith08 - 2005-02-25

ok if u go to www.ultimate-guitar.com u will find a much more accurate tab for this song and dude shebs ur starting to annoy me dude. u dont know wut ur talkin about
- a concerned citizen


again alone - 2005-03-21

You... Eric Weaver was playing guitar (by himself) in the Broken video. Kevin Dorr was on bass. JUST BECAUSE THERE IS ONE GUITARIST IN THE VIDEO DOESN'T MEAN THAT BROKEN ONLY HAS ONE GUITAR TRACK!!!
And live, Eric Weaver does lead, Greg Trammell does rythym.


Shebz - 2005-05-02

i agree


guitarfreaker - 2005-05-22

DUDE GET A GRIP. watch the video again and look in the back ground in the shadows on the right side of the stage( if your on the stage )and you'll see the extra guitarist. O.K peace.


Pro_Bassist16 - 2005-05-29

Hey, I just saw 12 Stones in concert at Big Splash and there are 5 of them playing. 1 singer, 1 drummer, 1 bassist and 2 guitarist. Just thought I'd help clerify that for y'all.


eclipse_047 - 2005-05-31

hey man i dont know why these people are tabbing and saying its wrong i thinks its great the way it is.


Highfive1177 - 2005-06-24

GUYS GUYS GUYS...CALM DOWN HERE....THiS SONG is TUNED TO DROP C....and the intro is way off....ITS SOO SIMPLE...I might tab my version of this song one day!


kgilbert - 2005-09-19

There is only one guitarist and one bassist in 12 Stones. In concert, they use two guitarists - Eric does lead and another guy does rythm/distortion. For their CD though, they play it twice and overlay the tracks.


Pro_Bassist16 - 2005-09-21

yeah that sounds about right ^^^


therabidemu - 2005-12-03

I'm not sure why you guys insist on playing the solo on the entirely wrong strings. Solo starts on note D on the A string. And who really cares how many guitarists they have live or on the album, point is you can play this song just fine with one guitar.


Faceless - 2006-01-16

Actually, Paul plays rhythm (I spelled it right) on the recordings. Apparently, he would play it live and in videos, but he likes to jump around and stuff, which would be limited by him playing guitar.


chevelleman - 2006-03-07

Heres how it goes.Greg plays rythm live and Eric plays lead.On there first Cd on the pg that tells about the band its Paul,Eric,kevin,adn Aaron.On the second Cd it said that the mebers of the band are Paul,Eric,Greg,and Aaron.

So pretty much everyone is right here.

Oh and the tab is great dude.


Its all for God,
Chevelleman


guitarcordfreak - 2006-04-20

does anybody know how long it takes for a tab to appear the site cuz I submitted a tab for this song and I am almost 100% sure that it's right and it's been about a week or more and it still hasn't been posted. so could some one tell me about how long it takes? thanx!!!!:)


burningfaith08 - 2006-10-10

wow... this isnt even the right tuning...


Add a comment/correction

Complimentary Christian Ringtones
Dadamobile and CGR have teamed up to bring your favorite Christian artists right to your phone. Sign up today and get 10 complementary ringtones!
Tab Country
Did you know CGR has a sister site w/ country guitar tabs? Well we do! Its called Tab Country. It has a great archive with a lot of country tabs.
Rockin Tabs
Are you looking for a site that has rock guitar tabs? Then Rockintabs.com is the place for you. It is a budding site with many rock guitar tabs. Submit your tab today.
Tab Gallery
Tab Gallery has a compilation of christian, rock, and country tabs all in one place. Come visit us.