Guitar Tabs
song title    band name

Join Us Today!

Don't strum alone...
be a part of the largest online Christian music community. Browse thousands of guitar tabs and chat w/ musicians like yourself.


It's Free!

This tab has been rated a 4.40 out of 5 for accuracy. (5 votes)Sorry, but you must be logged in to rate this tab.
Click here to log-in, or you can click here to register.
(Registration is free)

All songs owned by corresponding publishing company. If you make copies of any song on this website, be sure to report your usage to CCLI.
Submitted by: tenwatt

#----------------------------------PLEASE NOTE---------------------------------#
#This file is the author's own work and represents their interpretation of the #
#song. You may only use this file for private study, scholarship, or research. #
#------------------------------------------------------------------------------#

YOU'RE BEAUTIFUL
As recorded by Paul Wright
(From the 2004 Album FLY AWAY)


Transcribed by Jeremy Watts

Words and Music by Paul Wright
Arranged by Jeremy Watts
 
It's all there.  If you have any questions or comments email me at
jeremy.watts@cieng.com.  I also put a Power Tab in the Power Tab forum.

Em x 7 9 0 x x
C5 x 3 5 0 x x
G5 x 10 12 0 x x
Dsus4 x 5 7 0 x x
Em7 0 2 2 0 3 3
G 3 2 0 0 3 3
Cadd9 x 3 2 0 3 3
D/A x 0 0 2 3 2 



    Q=115
    Em              C5               G5                    Dsus4
   4/4
    Gtr I
||----------------------------------------------------------------------------||
||o--------------------------------------------------------------------------o||
||------0-----0---0------0-----0---0--------0-------0----0------0---0---------||
||----9-----9----------5-----5-----------12------12-----------7---------------||
||o-7-----7-----7---/3-----3-----3---/10------10------10---/5-----5----------o||
||--------------------------------------------------------------------5--7-0--||


  Em            C5               G5                    Dsus4
|------------------------------------------------------------------------|
|------------------------------------------------------------------------|
|---0-----0---0------0-----0---0--------0-------0----0------0-----0---0--|
|-------9----------5-----5-----------12------12-----------7-----7--------|
|-7---7-----7---/3-----3-----3---/10------10------10---/5-----5-----5----|
|------------------------------------------------------------------------|


  Em               C5               G5                    Dsus4
|---------------------------------------------------------------|
|---------------------------------------------------------------|
|------0-----0---0------0-----0---0--------0-------0----0-------|
|----9-----9----------5-----5-----------12------12--------------|
|-/7-----7-----7---/3-----3-----3---/10------10------10---/5----|
|---------------------------------------------------------------|


    Em7                 G                   Cadd9
||--3-3-3-3-3-3-3-3-3-3-3-3-3-3-3-3-3-3-3-3-3-3-3-3-3-3-3-3-3-3--|
||o-3-3-3-3-3-3-3-3-3-3-3-3-3-3-3-3-3-3-3-3-3-3-3-3-3-3-3-3-3-3--|
||--0-0-0-0-0-0-0-0-0-0-0-0-0-0-0-0-0-0-0-0-0-0-0-0-0-0-0-0-0-0--|
||--2-2-2-2-2-2-2-2-2-2-0-0-0-0-0-0-0-0-0-0-2-2-2-2-2-2-2-2-2-2--|
||o-2-2-2-2-2-2-2-2-2-2-2-2-2-2-2-2-2-2-2-2-3-3-3-3-3-3-3-3-3-3--|
||--0-0-0-0-0-0-0-0-0-0-3-3-3-3-3-3-3-3-3-3----------------------|


                       3x
|-3-3-3-3-3-3-3-3-3-3--||----|
|-3-3-3-3-3-3-3-3-3-3-o||----|
|-0-0-0-0-0-0-0-0-0-0--||----|
|-2-2-2-2-2-2-2-2-2-2--||----|
|-3-3-3-3-3-3-3-3-3-3-o||----|
|----------------------||----|


                                                D.C.
  Em7                 D/A                 Cadd9
|-3-3-3-3-3-3-3-3-3-3-2-2-2-2-2-2-2-2-2-2-3-------------|
|-3-3-3-3-3-3-3-3-3-3-3-3-3-3-3-3-3-3-3-3-3-------------|
|-0-0-0-0-0-0-0-0-0-0-2-2-2-2-2-2-2-2-2-2-0-------------|
|-2-2-2-2-2-2-2-2-2-2-0-0-0-0-0-0-0-0-0-0-2-------------|
|-2-2-2-2-2-2-2-2-2-2-0-0-0-0-0-0-0-0-0-0-3-------------|
|-0-0-0-0-0-0-0-0-0-0-----------------------------------|


    D/A
||--2-2-2-2-2-2-2-2-2-2----|
||o-3-3-3-3-3-3-3-3-3-3----|
||--2-2-2-2-2-2-2-2-2-2----|
||--0-0-0-0-0-0-0-0-0-0----|
||o-0-0-0-0-0-0-0-0-0-0----|
||-------------------------|


|-2-2-2-2-2-2-2-2-2-2----|
|-3-3-3-3-3-3-3-3-3-3----|
|-2-2-2-2-2-2-2-2-2-2----|
|-0-0-0-0-0-0-0-0-0-0----|
|-0-0-0-0-0-0-0-0-0-0----|
|------------------------|


  Cadd9
|-3-3-3-3-3-3-3-3-3-3----|
|-3-3-3-3-3-3-3-3-3-3----|
|-0-0-0-0-0-0-0-0-0-0----|
|-2-2-2-2-2-2-2-2-2-2----|
|-3-3-3-3-3-3-3-3-3-3----|
|------------------------|


|-3-3-3-3-3-3-3-3-3-3--||----|
|-3-3-3-3-3-3-3-3-3-3-o||----|
|-0-0-0-0-0-0-0-0-0-0--||----|
|-2-2-2-2-2-2-2-2-2-2--||----|
|-3-3-3-3-3-3-3-3-3-3-o||----|
|----------------------||----|


  Em7                 D/A                 Cadd9
|-3-3-3-3-3-3-3-3-3-3-2-2-2-2-2-2-2-2-2-2-3-3-3-3-3-3-3-3-3-3-|
|-3-3-3-3-3-3-3-3-3-3-3-3-3-3-3-3-3-3-3-3-3-3-3-3-3-3-3-3-3-3-|
|-0-0-0-0-0-0-0-0-0-0-2-2-2-2-2-2-2-2-2-2-0-0-0-0-0-0-0-0-0-0-|
|-2-2-2-2-2-2-2-2-2-2-0-0-0-0-0-0-0-0-0-0-2-2-2-2-2-2-2-2-2-2-|
|-2-2-2-2-2-2-2-2-2-2-0-0-0-0-0-0-0-0-0-0-3-3-3-3-3-3-3-3-3-3-|
|-0-0-0-0-0-0-0-0-0-0-----------------------------------------|


|-3-3-3-3-3-3-3-3-3-3----|
|-3-3-3-3-3-3-3-3-3-3----|
|-0-0-0-0-0-0-0-0-0-0----|
|-2-2-2-2-2-2-2-2-2-2----|
|-3-3-3-3-3-3-3-3-3-3----|
|------------------------|


  Em7                 D/A                 Cadd9
|-3-3-3-3-3-3-3-3-3-3-2-2-2-2-2-2-2-2-2-2-3------------|
|-3-3-3-3-3-3-3-3-3-3-3-3-3-3-3-3-3-3-3-3-3------------|
|-0-0-0-0-0-0-0-0-0-0-2-2-2-2-2-2-2-2-2-2-0------------|
|-2-2-2-2-2-2-2-2-2-2-0-0-0-0-0-0-0-0-0-0-2------------|
|-2-2-2-2-2-2-2-2-2-2-0-0-0-0-0-0-0-0-0-0-3------------|
|-0-0-0-0-0-0-0-0-0-0----------------------------------|


    Em        C5      G5           Dsus4
                                            4x
||------------------------------------------||-|
||o----------------------------------------o||-|
||-------0--------0----------0---------0----||-|
||-----9--------5---------12---------7------||-|
||o-/7-----7\-3-----3-/10------10\-5-----5-o||-|
||------------------------------------------||-|


    Em         C5         G5           Dsus4
||-------------------------------------------------||--|
||o-----------------------------------------------o||--|
||------0----------0------------0----------0-------||--|
||----9----------5-----------12----------7---------||--|
||o-7----------3----------10-----------5----------o||--|
||-------------------------------------------------||--|


    Em              C5               G5                    Dsus4
                                                                             4x
||---------------------------------------------------------------------------||
||o-------------------------------------------------------------------------o||
||------0-----0---0------0-----0---0--------0-------0----0------0-----0---0--||
||----9-----9----------5-----5-----------12------12-----------7-----7--------||
||o-7-----7-----7---/3-----3-----3---/10------10------10---/5-----5-----5---o||
||---------------------------------------------------------------------------||




--------------------------------------------------------------------------------


Tablature Legend
----------------
 h   - hammer-on
 p   - pull-off
 b   - bend
 pb  - pre-bend
 r   - bend release (if no number after the r, then release immediately)
 /\  - slide into or out of (from/to "nowhere")
 s   - legato slide
 S   - shift slide
 - natural harmonic
[n]  - artificial harmonic
n(n) - tapped harmonic
 ~   - vibrato
 tr  - trill
 T   - tap
 TP  - trem. picking
 PM  - palm muting
\n/  - tremolo bar dip; n = amount to dip
 \n  - tremolo bar down
 n/  - tremolo bar up
/n\  - tremolo bar inverted dip
 =   - hold bend; also acts as connecting device for hammers/pulls
 <> - volume swell (louder/softer)
 x   - on rhythm slash represents muted slash
 o   - on rhythm slash represents single note slash

Misc Legend
-----------
 |  - bar
||  - double bar
||o - repeat start
o|| - repeat end
*|  - double bar (ending)
 :  - bar (freetime)
 $  - Segno
 &  - Coda
Tempo markers -  = BPM(8/16=s8/s16), where s8 = swing 8ths, s16 = swing 16ths



--------------------------------------------------------------------------------

** Generated using Power Tab Editor by Brad Larsen: The Official Power Tab Web Site

Comments about this tab

CDBongo - 2007-05-24

Extremely accurate tab, you saved me alot of time. I have the power tab too and it is right on. I can't believe no one has given you feedback for this one yet. This tab is very accurate and anyone who gave you less than a 5 most likely can't read tabs or the tab is too complicated for them.


Add a comment/correction

Complimentary Christian Ringtones
Dadamobile and CGR have teamed up to bring your favorite Christian artists right to your phone. Sign up today and get 10 complementary ringtones!
Tab Country
Did you know CGR has a sister site w/ country guitar tabs? Well we do! Its called Tab Country. It has a great archive with a lot of country tabs.
Rockin Tabs
Are you looking for a site that has rock guitar tabs? Then Rockintabs.com is the place for you. It is a budding site with many rock guitar tabs. Submit your tab today.
Tab Gallery
Tab Gallery has a compilation of christian, rock, and country tabs all in one place. Come visit us.