Guitar Tabs
song title    band name

Join Us Today!

Don't strum alone...
be a part of the largest online Christian music community. Browse thousands of guitar tabs and chat w/ musicians like yourself.


It's Free!

This tab has been rated a 1.67 out of 5 for accuracy. (3 votes)Sorry, but you must be logged in to rate this tab.
Click here to log-in, or you can click here to register.
(Registration is free)

All songs owned by corresponding publishing company. If you make copies of any song on this website, be sure to report your usage to CCLI.
Submitted by: sack

Trademark
Relienk K


Yeah, this is the solo at the end of the intro.
I noticed that no-one got it right. Well, that actually goes 
for just about the whole song, but I don't have time to tab 
the whole thing right now 
How DO you spell no-one?

E----------------------------------------------------------------
B-------------------9-----7--------------------------------------
G--7-7-11-7-7-7-7-7---7-7---7-7-11-------------------------------
D---------------------------------------9-------------7----------
A-----------------------------------7-7---7-7-11--5-5---5-5-9----
E----------------------------------------------------------------

Repeat this. Second time is the same except that the last note is 
7th fret on the D string. 

Maybe one of these days I'll tab the whole song...

Good Luck. Keep playing.

Comments about this tab

gregorykicks - 2004-12-07

No one is two words not one.
Greg


sk8tergeorge15 - 2006-03-15

the solo is actually (palm mute the A string the whole time)
e|-------------------------------------------------------------
B|-------------------------------------------------------------
G|------------------------------------------------------------- x2
D|-----11----7---14---12---11/---9---6----7-----4--------------
A|-0-0---0-0--0-0--0-0--0-0---7-7-7-7--5-5--5-5----------------
E|-------------------------------------------------------------


Add a comment/correction

Complimentary Christian Ringtones
Dadamobile and CGR have teamed up to bring your favorite Christian artists right to your phone. Sign up today and get 10 complementary ringtones!
Tab Country
Did you know CGR has a sister site w/ country guitar tabs? Well we do! Its called Tab Country. It has a great archive with a lot of country tabs.
Rockin Tabs
Are you looking for a site that has rock guitar tabs? Then Rockintabs.com is the place for you. It is a budding site with many rock guitar tabs. Submit your tab today.
Tab Gallery
Tab Gallery has a compilation of christian, rock, and country tabs all in one place. Come visit us.