Guitar Tabs
song title    band name

Join Us Today!

Don't strum alone...
be a part of the largest online Christian music community. Browse thousands of guitar tabs and chat w/ musicians like yourself.


It's Free!

This tab has been rated a 5.00 out of 5 for accuracy. (5 votes)Sorry, but you must be logged in to rate this tab.
Click here to log-in, or you can click here to register.
(Registration is free)

All songs owned by corresponding publishing company. If you make copies of any song on this website, be sure to report your usage to CCLI.
Submitted by: sack

Down In Flames
Relient K
Anatomy of Tongue in Cheek
Tabbed by William Negron

I just wanted to make a tab that had both
guitar parts. There haven't been to many of
those for Relient K songs.

Intro:

E||o-----------------------------------------o||
B||o-11-9-9-9-11-9-9-9-11--8-9-9-9-8-9-9-9-8-o||
G||o--8-8-8-8--8-8-8-8--8--8-8-8-8-8-8-8-8-8-o||
D||o-----------------------------------------o||
A||o-----------------------------------------o||
E||o-----------------------------------------o||

The rhythm there is very interesting. 
I can play it perfectly, but I can't seem to slow it down enough 
to count the beats and tab it.
In other words, the number of notes is probably wrong. 
If you listen to it, you should get it.

The fourth time you play the Intro tab,
the end is changed:

E---------------------------------|
B-11-9-9-9-11-9-9-9-11----8--8--8-|
G--8-8-8-8--8-8-8-8--8----8--8--8-|
D---------------------------------|
A---------------------------------|
E---------------------------------|

As the Intro tab is being played the third and
fourth times the second guitar plays this:

E---------------|---------------|
B---------------|---------------|
G---------8-8-8-|--4-4-4--8-8-8-|
D--4-4-4--8-8-8-|--4-4-4--8-8-8-|
A--4-4-4--6-6-6-|--2-2-2--6-6-6-|
E--2-2-2--------|---------------|

Guitar I
E||o--------|-----------o||------|
B||o--------|-----------o||------|
G||o--8---7-|--8--11-10-o||--8---|
D||o--8---8-|--9--11-10-o||--8---|
A||o--6---5-|--6---9--8-o||--6---|
E||o--------|-----------o||------|
Guitar II
E||o--------|-----------o||
B||o--------|-----------o|| (repeat once)
G||o--8---3-|--4--11-10-o||
D||o--8---3-|--4--11-11-o||
A||o--6---1-|--2---9--8-o||
E||o--------|-----------o||

Verse-

Muted strumming for a while, then:

E----------------------|--------|-----------|
B----------------------|--------|-----------|
G--x-x-11-11-x-x-10-10-|--8---3-|--4--11-10-|
D--x-x-11-11-x-x-10-10-|--8---3-|--4--11-10-|
A--x-x--9--9-x-x--8--8-|--6---1-|--2---9--8-|
E----------------------|--------|-----------|

Then:

E--------|------------|------|
B--------|------------|------|
G--4---6-|-----------5|--4---|
D--4---6-|--4------4--|--4---|
A--2---4-|--4----3----|--2---|
E--------|--2---------|------|

Lots of muted strumming, then:

E||o---------o||
B||o---------o||
G||o--4------o||
D||o--4---4--o||
A||o--2---4--o||
E||o------2--o||

E---------|--------|-----------------------|---|
B---------|--------|-----------------------|---|
G---8---4-|------3-|--4--11----8--6------5-|-4-|
D---8---4-|--4---3-|--4--11----8--6----4---|-4-|
A---6---2-|--4---1-|--2---9----6--4--3-----|-2-|
E---------|--2-----|-----------------------|---|

More muted strumming, then:

E||o---------o||
B||o--4------o||
D||o--4---4--o||
A||o--2---4--o||
E||o------2--o||

Guitar I            (repeat 2x)
E||o---------------------o||------------|
B||o---------------------o||------------|
G||o--11---6---4----8--6-o||--11--6---4-|
D||o--11---6---4----8--6-o||--11--6---4-|
A||o---9---4---2----6--4-o||---9--4---2-|
E||o---------------------o||------------|
Guitar II (does this solo thing):
E----------------6-----------|
B--6-7-7-7-6-7-7---7-7-6-7-7-|
G----------------------------|
D----------------------------|
A----------------------------|
E----------------------------|

E----------------6-----6-7-6-|
B--6-7-7-7-6-7-7---7-7-------|
G----------------------------|
D----------------------------|
A----------------------------|
E----------------------------|

E----------------6-----------|
B--6-7-7-7-6-7-7---7-7-6-7-7-|
G----------------------------|
D----------------------------|
A----------------------------|
E----------------------------|

E----------------6-|
B--6-7-7-7-6-7-7---|
G------------------|
D------------------|
A------------------|
E------------------|

Verse 2-

Guitar is silenced; Bass solo

Suddenly:

E-------------------------------|
B-------------------------------|
G--x-x-8-x-8-6-6--x-x-3-x-3-3-3-|
D--x-x-8-x-8-6-6--x-x-3-x-3-3-3-|
A--x-x-6-x-6-6-6--x-x-1-x-1-1-1-|
E-------------------------------|

E-----------------------------------|
B-----------------------------------|
G--x-x-4-x-4-4-4--x-x-11-x-10-10-10-|
D--x-x-4-x-4-4-4--x-x-11-x-11-11-11-|
A--x-x-2-x-2-2-2--x-x--9-x--8--8--8-|
E-----------------------------------|

E--------|------------|------|
B--------|------------|------|
G--4---6-|-----------5|--4---|
D--4---6-|--4------4--|--4---|
A--2---4-|--4----3----|--2---|
E--------|--2---------|------|

Yeah, more muting.

E||o---------o||
B||o---------o||
G||o--4------o||
D||o--4---4--o||
A||o--2---4--o||
E||o------2--o||

E---------|--------|-----------------------|---|
B---------|--------|-----------------------|---|
G---8---4-|------3-|--4--11----8--6------5-|-4-|
D---8---4-|--4---3-|--4--11----8--6----4---|-4-|
A---6---2-|--4---1-|--2---9----6--4--3-----|-2-|
E---------|--2-----|-----------------------|---|

Yet again, muted strumming.

E||o---------o||
B||o--4------o||
D||o--4---4--o||
A||o--2---4--o||
E||o------2--o||

Guitar I            (repeat 6x)
E||o---------------------o||------------|
B||o---------------------o||------------|
G||o--11---6---4----8--6-o||--11--6---4-|
D||o--11---6---4----8--6-o||--11--6---4-|
A||o---9---4---2----6--4-o||---9--4---2-|
E||o---------------------o||------------|

The fifth time, Guitar I is joined by Guitar II:

E||o----------------6-----------|
B||o--6-7-7-7-6-7-7---7-7-6-7-7-|
G||o----------------------------|
D||o----------------------------|
A||o----------------------------|
E||o----------------------------|

E|----------------6-----6-7-6-o||
B|--6-7-7-7-6-7-7---7-7-------o||
G|----------------------------o||
D|----------------------------o|| (repeat 1x)
A|----------------------------o||
E|----------------------------o||

Another Bass solo.

One Guitar now goes like so:
B|-9-9-9-9-9-9-9-9-9-9-9-8-8-8-9-9-9-9
Yeah. That's not exactly the pattern there but,
it's pretty much just strumming that string on
the 9th fret with all the rest of the strings
muted. And you move it a couple of times.
There's also a slide from the 14th fret at the end.

The other Guitar is an acoustic strumming for a
while and then there's a guitar with delay and echoing
and all that good stuff. And this is
what it plays:

E||o--6--6--6--6--6-----6--6-6--o||
B||o--7--7--7--7--7-----7--7-7--o||
G||o--8--7--6--5--4--6--4--6-7--o||
D||o-----------------4----------o|| (repeat 2x)
A||o----------------------------o||
E||o----------------------------o||

Sorry I didn't include the rhythm in some spots.
It would've made it twice as long and three
times as complicated.

Good luck to you all, Have fun, etc.

Comments about this tab

TrinityVoice - 2006-03-28

looks good. thanks


relient nelson - 2006-06-13

sweetness dude


Add a comment/correction

Complimentary Christian Ringtones
Dadamobile and CGR have teamed up to bring your favorite Christian artists right to your phone. Sign up today and get 10 complementary ringtones!
Tab Country
Did you know CGR has a sister site w/ country guitar tabs? Well we do! Its called Tab Country. It has a great archive with a lot of country tabs.
Rockin Tabs
Are you looking for a site that has rock guitar tabs? Then Rockintabs.com is the place for you. It is a budding site with many rock guitar tabs. Submit your tab today.
Tab Gallery
Tab Gallery has a compilation of christian, rock, and country tabs all in one place. Come visit us.