Guitar Tabs
song title    band name

Join Us Today!

Don't strum alone...
be a part of the largest online Christian music community. Browse thousands of guitar tabs and chat w/ musicians like yourself.


It's Free!

This tab has been rated a 4.00 out of 5 for accuracy. (2 votes)Sorry, but you must be logged in to rate this tab.
Click here to log-in, or you can click here to register.
(Registration is free)

All songs owned by corresponding publishing company. If you make copies of any song on this website, be sure to report your usage to CCLI.
Submitted by: excalibur

Big Dismal
The Passion of the Christ 
2004

Intro/Verse: guitar 1
|---------------------------|
|---------------------------|
|---8--8--8--8--8--8-8--8---|
|----8--8--8--8--8-------8--|
|-6---6--6--6--6--6---6---6-|
|---------------------------| 


Timing not shown above but this is the riff


Chorus (strum pattern not shown):
|-----|-----|-------|---|--------|
|-----|-----|-------|---|--------|
|-8-8-|-----|-------|---|--------|
|-8-8-|-6-6-|-10-10-|-8-|-6-6----|
|-6-6-|-6-6-|-10-10-|-8-|-6-6----|
|-----|-4-4-|-8--8--|-6-|-4-4----|  
Occasionally through  ^
This in               |

Play after first chorus
|--------------------------|
|--------------------------|
|-12-13-12--12-13-12-------|
|--------------------------|
|--------------------------|
|--------------------------|

Before second chorus:
|--------------------------|
|--------------------------|
|--------------------------|
|-10-12-13-----------------|
|--------------------------|
|--------------------------|






Chorus outro (I can see you in the clouds)
----|               |-------|-------|
----|               |-------|-------|
----|               |-------|-3-3-3-|
-5--| < play once   |-3-3-3-|-3-3-3-|
-5--|               |-3-3-3-|-1-1-1-|
-3--|               |-1-1-1-|-------|

Won't you come and save the world:
|-----|-----|-------|------|------|
|-----|-----|-------|------|------|
|-8-8-|-----|-------|------|------|
|-8-8-|-6-6-|-10-10-|-6-6--|-8-8--| 
|-6-6-|-6-6-|-10-10-|-6-6--|-8-8--| 
|-----|-4-4-|-8--8--|-4-4--|-6-6--|   

|-------|-----|------|----|
|-------|-----|------|----|
|-------|-----|------|----|
|-10-10-|-8-8-|-6-6--|-5--|
|-10-10-|-8-8-|-6-6--|-5--|
|-8--8--|-6-6-|-4-4--|-3--|

Then chorus then it ends

Comments about this tab

excalibur - 2004-09-16

email me at excalibur627@hotmail.com for explanations or what not.


scott_n - 2004-11-07

This is the correct fingerpicking pattern for the verses:

eb-----------------------------------------------------
Bb---5----5----5----5----5---5----5----5-5----5----5--
Gb----4----4----4----4----4---4----4------4----4------
Db--2-------------------------------------------------
Ab------------0----2----2--00---0-----0-0----0----0---
Eb-------3---------------------------------------------

I don't know about the rest of the tab, but what is in this original tab the verse does not go with the song. Listen to the song (it's on bigdismal.com) and then play it, you'll figure it out. Also, watching the video helped me figure it out.


guitarboy_86 - 2004-12-17

The 3 on the previous tab should be a 4.


Add a comment/correction

Complimentary Christian Ringtones
Dadamobile and CGR have teamed up to bring your favorite Christian artists right to your phone. Sign up today and get 10 complementary ringtones!
Tab Country
Did you know CGR has a sister site w/ country guitar tabs? Well we do! Its called Tab Country. It has a great archive with a lot of country tabs.
Rockin Tabs
Are you looking for a site that has rock guitar tabs? Then Rockintabs.com is the place for you. It is a budding site with many rock guitar tabs. Submit your tab today.
Tab Gallery
Tab Gallery has a compilation of christian, rock, and country tabs all in one place. Come visit us.