Guitar Tabs
song title    band name

Join Us Today!

Don't strum alone...
be a part of the largest online Christian music community. Browse thousands of guitar tabs and chat w/ musicians like yourself.


It's Free!

This tab has been rated a 5.00 out of 5 for accuracy. (7 votes)Sorry, but you must be logged in to rate this tab.
Click here to log-in, or you can click here to register.
(Registration is free)

All songs owned by corresponding publishing company. If you make copies of any song on this website, be sure to report your usage to CCLI.
Submitted by: SSj Guitarist

Song: New Design
Artist: Thousand Foot Krutch ©2003 
Tabbed by: SSj Guitarist

This should be the final version of this song, I believe this version is 100% 
correct, because I fixed the problems with the other versions and added what was
missing.

Intro/Verse:
E------------------------------
B------------------------------
G------------------------------
D-8--8-88-7--7-7/3-0-0-0-00-0--
A-8--8-88-7--7-7/3-0-0-0-00-0-- x2
D–8–-8–88-7--7-7/3-0-0-0-00-0--
PM*  * ** *  *     * * * ** *   

E-------------------------------
B-------------------------------
G-------------------------------
D-88888888-777777/3-0-0-00-0-0--
A-88888888-777777/3-0-0-00-0-0-- x2
D-88888888-777777/3-0-0-00-0-0--
PM******** *****    * * ** * *

[Note: for each time you play the open D, the strumming pattern is different,
eg, on the last time, you stop early before the chorus, you can figure out 
what I mean by listening to the song.]

Chorus:
E------------------------------------------------------------------------
B------------------------------------------------------------------------
G------------------------------------------------------------------------
D–-8—--/1–-1--3--6-6--0--0--8p7-0-10h12-000-8p7-0-10h12-8----10----0--0--
A–-8---/1–-1--3--6-6--0--0--8p7-0-10h12-000-8p7-0-10h12-8-x8-10-x8-0--0--
D--8—--/1–-1--3--6-6--0--0--8p7-0-10h12–000-8p7-0-10h12–8----10----0--0--

Continued
E------------------------------
B------------------------------
G------------------------------
D-8p7-0-10h12-000-8p7-0-10h12--
A-8p7-0-10h12–000-8p7-0-10h12-- x2
D–8p7-0-10h12–000-8p7-0-10h12--
						
Verse (only this time, don’t palm mute it at all)
Chorus

Bridge
D------------------------------------------------------------------------
A------------------------------------------------------------------------
D-0h2-0-0h2-0-0h2-3-0h2-0-0h2-0-0h2-3-0h2-0-0h2-0-0h2-3-0h2-0-0h2-0-0h2--

D------------------------------------------------------------------------
A-0h2-0-0h2-0-0h2-3-0h2-0-0h2-0-0h2-3-0h2-0-0h2-0-0h2-3-0h2-0-0h2-0-0h2-3
D-0h2-0-0h2-0-0h2-3-0h2-0-0h2-0-0h2-3-0h2-0-0h2-0-0h2-3-0h2-0-0h2-0-0h2-3

D-0h2-0-0h2-0-0h2-3-0h2-0-0h2-0-0h2-3-0h2-0-0h2-0-0h2-3-0h2-0-0h2-0-0h2-3
A-0h2-0-0h2-0-0h2-3-0h2-0-0h2-0-0h2-3-0h2-0-0h2-0-0h2-3-0h2-0-0h2-0-0h2-3
D-0h2-0-0h2-0-0h2-3-0h2-0-0h2-0-0h2-3-0h2-0-0h2-0-0h2-3-0h2-0-0h2-0-0h2-3

[After this, just strum the top 3 strings open until the chorus, you can 
make up your own patter, and do what you want, I play a variation of the 
last bridge riff, just strum all open but the last -0h2-3- until the chorus]


For the Chorus, just start off with:

D-------------------
A-------------------
D--8—--/1–-1--3--6-6

then pick it up from there, and play the rest as normal, but only play it once.

Outro:

E-------------------------------------------------------------------------
B-------------------------------------------------------------------------
G-------------------------------------------------------------------------
D--8—--/1–-1--3--6-6--0--0--8p7-0-10h12–000-8p7-0-10h12–000-3-/5-7-000-8p7
A--8—--/1–-1--3--6-6--0--0--8p7-0-10h12–000-8p7-0-10h12–000-3-/5-7-000-8p7
D--8—--/1–-1--3--6-6--0--0--8p7-0-10h12–000-8p7-0-10h12–000-3-/5-7-000-8p7
 
E----------
B----------
G----------
D-0-10h12--
A-0-10h12--
D-0-10h12--
	
Well, that’s that.  Please feel free to send corrections to 
ssj_guitarist@hotmail.com or to post them, also, please rate this tab! 
Peace & Thanks,

SSj

Comments about this tab

eddieg - 2005-02-02

I believe the Bridge goes like this:
D|------------------------------|
A|0h2-0------0h2-0------0h2-0---|
D|0h2-0------0h2-0------0h2-0---|

D|--------------------------5---|
A|0h2-0------0h2-0------0h2-3---|
D|0h2-0------0h2-0------0h2-----|


tfk_rox - 2005-10-30

Hey guys pleeeeeeeeeeeeeeeeeeeeeeeeeeeeease keep tabbing these guys 'cuse their my fav band and not all their songs have been tabbed and it would be sweet if you guys could keep tabbin them.
thanks


Dani_Boy - 2006-04-04

This is more like it! Your tab is really near perfection, though I can see some slight mistakes. The 3 fretted stuff in the bridge is off, but your chorus is really good.

Believe it or not, there is a Lead Guitar (second guitar) in this song which does it's appearence in the second verse. It's got a brighter, more hollow sound. TFK is a band with two guitars in their songs, though they hardly use it much in their "Phenomenon" album songs. If you listen to the songs in "The Art of Breaking" then you can hear the guitar much more and with more variation in the sounds.

Your tab is really good, but it's not perfect. But it's super hard to get a song perfect. So I'll give you a 5 anyway. Two big thumbs up for this tab!


Add a comment/correction

Complimentary Christian Ringtones
Dadamobile and CGR have teamed up to bring your favorite Christian artists right to your phone. Sign up today and get 10 complementary ringtones!
Tab Country
Did you know CGR has a sister site w/ country guitar tabs? Well we do! Its called Tab Country. It has a great archive with a lot of country tabs.
Rockin Tabs
Are you looking for a site that has rock guitar tabs? Then Rockintabs.com is the place for you. It is a budding site with many rock guitar tabs. Submit your tab today.
Tab Gallery
Tab Gallery has a compilation of christian, rock, and country tabs all in one place. Come visit us.