Guitar Tabs
song title    band name

Join Us Today!

Don't strum alone...
be a part of the largest online Christian music community. Browse thousands of guitar tabs and chat w/ musicians like yourself.


It's Free!

This tab has been rated a 4.50 out of 5 for accuracy. (2 votes)Sorry, but you must be logged in to rate this tab.
Click here to log-in, or you can click here to register.
(Registration is free)

All songs owned by corresponding publishing company. If you make copies of any song on this website, be sure to report your usage to CCLI.
Submitted by: Alfredrole50

Song: Die Buying
Artist: Blindside
Album: About a Burning Fire

I think my Tab has the intro corrected and i fixed some little things.

    intro and verse
e------------------------------
b------------------------------
G------------------------------
D----------4--5--4-------------
A--2-2-2----------2-0----------
E---------------------3-0-0-0--
         pre chorus
you have to hit the 577's like 10 times i think
e-------------------------
b-------------------------
G------5--4-----5--4------
D--7---5--4--7--5--4------
A--7---3--2--7--3--2------
E--5---------5------------  
    chorus (i got this from the other tabber)
e-----------------------------------------
b-----------------------------------------
G--12--11-12--14--12--11-12--14--12-9--11-
D--12--11-12--14--12--11-12--14--12-9--11-
A--10--9--10--12--10--9--10--12--10-7--9--
E-----------------------------------------
but it could be this.
E G A G E G C
  
bridge(for me it sounds perfect like this, but theres other ways)

G-12----13-------
(hit each one 16 times)

then it goes to intro, prechorus,and chorus.

This is my first time tabbing so tell me how i did. And please dont
chew me out if i made some mistakes. Enjoy God bless. 

Comments about this tab

rock4christ08 - 2005-02-11

hey great, the correct intro's on this tab!!! props to u buddy. this is exactly how i tabbed it, i didn't post it though, and one other thing, it's 11 times, which you play the 577's on the pre-chorus. awesomeness.........ray


brain2you - 2006-11-20

really good tab,thax for tabbing it


Add a comment/correction

Complimentary Christian Ringtones
Dadamobile and CGR have teamed up to bring your favorite Christian artists right to your phone. Sign up today and get 10 complementary ringtones!
Tab Country
Did you know CGR has a sister site w/ country guitar tabs? Well we do! Its called Tab Country. It has a great archive with a lot of country tabs.
Rockin Tabs
Are you looking for a site that has rock guitar tabs? Then Rockintabs.com is the place for you. It is a budding site with many rock guitar tabs. Submit your tab today.
Tab Gallery
Tab Gallery has a compilation of christian, rock, and country tabs all in one place. Come visit us.