Guitar Tabs
song title    band name

Join Us Today!

Don't strum alone...
be a part of the largest online Christian music community. Browse thousands of guitar tabs and chat w/ musicians like yourself.


It's Free!

This tab has been rated a 2.33 out of 5 for accuracy. (3 votes)Sorry, but you must be logged in to rate this tab.
Click here to log-in, or you can click here to register.
(Registration is free)

All songs owned by corresponding publishing company. If you make copies of any song on this website, be sure to report your usage to CCLI.
Submitted by: njsk8rboy

-----------------------------------------------------------------
Far Away  12 stones
-----------------------------------------------------------------
Tabbed by:njsk8rboy
Potter's Field 
my new and improved tab

Tuning: drop c
intro/chorus/verse 2
|-------------------------------------|
|-------------------------------------|
|-------------------------------------|
|-9-7-9-7-5-2-9-7-9-7-5-7-9-7-9-7-2-5-|
|-9-7-9-7-5-2-9-7-9-7-5-7-9-7-9-7-2-5-|
|-9-7-9-7-5-2-9-7-9-7-5-7-9-7-9-7-2-5-|
verse 1/rhythm guitar
|---|
|---|
|---| play that chord over and over
|-9-|
|-9-|
|-9-|
verse/lead guitar
|--------------------|
|--------------------|
|--(11)-9-8\4-9-8-11-|
|--------------------|
|--------------------|
|--------------------|
chorus/lead guitar
|---------------------------------------------------------------|
|---------------------------------------------------------------|
|-6-9-11--------------6--18-------------------------------------|
|-x-x--x----repeat-2x-x---x-------------------------------------|
|-47--9--------------4--16-------------------------------------|
|---------------------------------------------------------------|
bridge 1/rythem use delay/ and outro without delay
|------------------|
|------------------|
|------------------|
|-7-9-7-9-7-9-10-7-|
|-7-9-7-9-7-9-10-7-|
|-7-9-7-9-7-9-10-7-|
bridge 2
|---------------------------------------------------------------|
|---------------------------------------------------------------|
|---------------------------------------------------------------|
|-5-2-9-4-5-7-2-5-2-9-4-5-7-------------------------------------|
|-5-2-9-4-5-7-2-5-2-9-4-5-7-------------------------------------|
|-5-2-9-4-5-7-2-5-2-9-4-5-7-------------------------------------|
                      pm.....




| / slide up
| \ slide down
| h hammer-on
| p pull-off
| ~ vibrato
| + harmonic
| x Mute note

Comments about this tab

njsk8rboy - 2004-09-07

so how do u like it? anyway the 2nd verse is the same as the intro


FerriuS - 2004-09-08

no, 2nd verse is not like the intro


njsk8rboy - 2004-09-10

ya ill fix that then someday maybe after my siss wedding sept. 18 please pray.


aero! - 2006-03-11

what's the tuning for drop C? I know the first string is C but that can't be it...


Add a comment/correction

Complimentary Christian Ringtones
Dadamobile and CGR have teamed up to bring your favorite Christian artists right to your phone. Sign up today and get 10 complementary ringtones!
Tab Country
Did you know CGR has a sister site w/ country guitar tabs? Well we do! Its called Tab Country. It has a great archive with a lot of country tabs.
Rockin Tabs
Are you looking for a site that has rock guitar tabs? Then Rockintabs.com is the place for you. It is a budding site with many rock guitar tabs. Submit your tab today.
Tab Gallery
Tab Gallery has a compilation of christian, rock, and country tabs all in one place. Come visit us.