Guitar Tabs
song title    band name

Join Us Today!

Don't strum alone...
be a part of the largest online Christian music community. Browse thousands of guitar tabs and chat w/ musicians like yourself.


It's Free!

This tab has been rated a 4.50 out of 5 for accuracy. (8 votes)Sorry, but you must be logged in to rate this tab.
Click here to log-in, or you can click here to register.
(Registration is free)

All songs owned by corresponding publishing company. If you make copies of any song on this website, be sure to report your usage to CCLI.
Submitted by: Adam K

Far Away-12 Stones
CD:Potter's Field
 2004 Wind-Up Records.
Drop C Tuning C-G-C-F-A-D

b=bend

Intro
C[-7-9-9-9--7-9-7--5-5-5-5-5-2-2--7-9-9-9--7-9-7--5-5-5-5-5-7-7-]
G[-7-9-9-9--7-9-7--5-5-5-5-5-2-2--7-9-9-9--7-9-7--5-5-5-5-5-7-7-]
C[-7-9-9-9--7-9-7--5-5-5-5-5-2-2--7-9-9-9--7-9-7--5-5-5-5-5-7-7-]

C[-7-9-9-9--7-9-7--2-2-2-2-2-5-5--7-9-9-9--7-9-7--5-5-5-5-5-4-4-]
G[-7-9-9-9--7-9-7--2-2-2-2-2-5-5--7-9-9-9--7-9-7--5-5-5-5-5-4-4-]
C[-7-9-9-9--7-9-7--2-2-2-2-2-5-5--7-9-9-9--7-9-7--5-5-5-5-5-4-4-]

Verse 1
F[---------------------------------------------------------9999b-]
C[-9-9-9----------9-9-9----------9-9-9----------9-9-9------------]
G[-9-9-9--(bass)--9-9-9--(bass)--9-9-9--(bass)--9-9-9------------]
C[-9-9-9----------9-9-9----------9-9-9----------9-9-9------------]

F[------777766666--------7777666699669-----777766666--------777766669b-]
C[-9-9-9---------777-9-9-9------------9-9-9-------777-9-9-9------------]
G[-9-9-9-------------9-9-9------------9-9-9-----------9-9-9------------]
C[-9-9-9-------------9-9-9------------9-9-9-----------9-9-9------------]

Chorus
C[-7-9-9-9--7-9-7--5-5-5-5-5-2-2--7-9-9-9--7-9-7--5-5-5-5-5-7-7-]
G[-7-9-9-9--7-9-7--5-5-5-5-5-2-2--7-9-9-9--7-9-7--5-5-5-5-5-7-7-]
C[-7-9-9-9--7-9-7--5-5-5-5-5-2-2--7-9-9-9--7-9-7--5-5-5-5-5-7-7-]

C[-7-9-9-9--7-9-7--2-2-2-2-2-5-5--7-9-9-9--7-9-7--5-5-5-5-5-4-4-]
G[-7-9-9-9--7-9-7--2-2-2-2-2-5-5--7-9-9-9--7-9-7--5-5-5-5-5-4-4-]
C[-7-9-9-9--7-9-7--2-2-2-2-2-5-5--7-9-9-9--7-9-7--5-5-5-5-5-4-4-]

Post-Chorus
F[------77776666---------777766669999b-]
C[-9-9-9--------777-9-9-9--------------]
G[-9-9-9------------9-9-9--------------]
C[-9-9-9------------9-9-9--------------]

Verse 2
C[-9-9-9-9-9-0-0--7-7-7-7-7-2-2-]
G[-9-9-9-9-9-0-0--7-7-7-7-7-2-2-]x4
C[-9-9-9-9-9-0-0--7-7-7-7-7-2-2-]

C[-9-9-9-7-9-0-0--7-7-7-7-7-2-2-]
G[-9-9-9-7-9-0-0--7-7-7-7-7-2-2-]x4
C[-9-9-9-7-9-0-0--7-7-7-7-7-2-2-]

Chorus

Bridge Intro
C[-7h9-9-10h97h97h9-]
G[-7h9-9-10h97h97h9-]x8
C[-7h9-9-10h97h97h9-]

Bridge
C[-5-5-5-5-5-5-2-2-2-2-2-2-9-9-9-9-9-9-4-4-4-4-4-4-]
G[-5-5-5-5-5-5-2-2-2-2-2-2-9-9-9-9-9-9-4-4-4-4-4-4-]
C[-5-5-5-5-5-5-2-2-2-2-2-2-9-9-9-9-9-9-4-4-4-4-4-4-]

C[-5-5-5-5-5-5-7-7-7-7-7-7-2-2-2-2-2-2-2-2-2-2-2-2-]
G[-5-5-5-5-5-5-7-7-7-7-7-7-2-2-2-2-2-2-2-2-2-2-2-2-]
C[-5-5-5-5-5-5-7-7-7-7-7-7-2-2-2-2-2-2-2-2-2-2-2-2-]

C[-5-5-5-5-5-5-2-2-2-2-2-2-9-9-9-9-9-9-4-4-4-4-4-4-]
G[-5-5-5-5-5-5-2-2-2-2-2-2-9-9-9-9-9-9-4-4-4-4-4-4-]
C[-5-5-5-5-5-5-2-2-2-2-2-2-9-9-9-9-9-9-4-4-4-4-4-4-]

C[-5-5-5-5-5-5-7-7-7-7-7-7-]
G[-5-5-5-5-5-5-7-7-7-7-7-7-]Stop
C[-5-5-5-5-5-5-7-7-7-7-7-7-]

Chorus x2

Ending
C[-7h9-9-7h9-9-7h9-9-10h97h97h9-]
G[-7h9-9-7h9-9-7h9-9-10h97h97h9-]x2
C[-7h9-9-7h9-9-7h9-9-10h97h97h9-]

C[-7h9-9-10h97h97h9-]
G[-7h9-9-10h97h97h9-]x4
C[-7h9-9-10h97h97h9-]

I added Extra riffs. I hope you can add it.Thanks.
Tabbed by Adam K

Comments about this tab

njsk8rboy - 2004-09-17

wow its better than my tab.


FerriuS - 2004-09-24

Good, but what about pre-chorus? Where is it? And try to divide numbers next time, because it's hard to read a tab sometimes.


FerriuS - 2004-09-24

Ending of fill in 1st verse is (played on 3rd string):
F|--7-7--7--7-6-6--6--6-9b-9-9-9b--|
And when you want to show pre-bend in tab (bending, then playing string without releasing it) like it is in first verse, then use a "pre-bend" marker (pb).
For example:
Use |--pb9-9-9-9-9-9--| instead of |--9-9-9-9-9-9b--| (the last one is the way you wrote it in this tab).


njsk8rboy - 2004-09-25

ya i agree


Adam K - 2004-11-02

If U guys want it perfect maybe you should tab it next time.


Ddog - 2004-11-22

hey how are you sure its tuned down that far it could be played like that or in drop d


Ddog - 2004-11-22

never mind my bad


FerriuS - 2004-12-31

I can tab it, but mistakes in THIS tab are very small, and because of that we don't need new Far Away tab! So this tab + comments = c00l!
P.S. HAPPY NEW YEAR TO ALL! GOD BLESS YA!


Emery37 - 2005-03-04

hey man this tab is really awesome!!! i finally figured out how to tune it in c... pretty sad i know but hey! anyway great job man


winston856 - 2005-04-24

Very nice job Adam, only minor details but overall a great tab!

The guys here were just trying to give constructive criticism, they didn't mean any harm (I think). It's just nitpicking.

Nice job though, very thorough :)


sanctusfan14 - 2005-04-25

in the 2nd verse i think a second guitar plays the a C5 and octave higher
4-12 along with the lower C5
5-12
6-12


Echo6 - 2005-08-24

It is tuned to drop D. Theres no way it can be played tht low.


E-rock - 2006-06-25

adam k you rule! your the best tabber ive seen posting! keep it up!


cristyraul - 2010-03-09

i play it in Drop D 'cause it's kinda easier for me,but also the sound it's better 'cause it's really low in Drop C...


Add a comment/correction

Complimentary Christian Ringtones
Dadamobile and CGR have teamed up to bring your favorite Christian artists right to your phone. Sign up today and get 10 complementary ringtones!
Tab Country
Did you know CGR has a sister site w/ country guitar tabs? Well we do! Its called Tab Country. It has a great archive with a lot of country tabs.
Rockin Tabs
Are you looking for a site that has rock guitar tabs? Then Rockintabs.com is the place for you. It is a budding site with many rock guitar tabs. Submit your tab today.
Tab Gallery
Tab Gallery has a compilation of christian, rock, and country tabs all in one place. Come visit us.