Guitar Tabs
song title    band name

Join Us Today!

Don't strum alone...
be a part of the largest online Christian music community. Browse thousands of guitar tabs and chat w/ musicians like yourself.


It's Free!

This tab has been rated a 4.29 out of 5 for accuracy. (7 votes)Sorry, but you must be logged in to rate this tab.
Click here to log-in, or you can click here to register.
(Registration is free)

All songs owned by corresponding publishing company. If you make copies of any song on this website, be sure to report your usage to CCLI.
Submitted by: guitarguy3000

Song: Jesus Freak
Artist: DC Talk
Album: Jesus Freak
Tabber: Ryan H.

It took me about a week to tweak this,
so it should sound just like the recording.
Here goes:

Intro Part 1 (steelstring acoustic, drop D tuning)
E|--------------------------------|
B|--------------------------------|
G|--------------------------------|
D|--------------------------------|
A|1-1-1-1-4-4-4-4-6-6-6-6-8-8-8-8-| (2x)
D|1-1-1-1-4-4-4-4-6-6-6-6-8-8-8-8-|

Intro Part 2 (dist. electric)
E|-----------------------------------|
B|-----------------------------------|
G|-----------------------------------|
D|-----------------------------------|
A|2-2-2-5-5-5-5-12-12-11-11-9-9-9-9-9| (4x)
E|0-0-0-3-3-3-3-10-10-9--9--7-7-7-7-7|

Intro to verse (dist. electric)
E|222-222---------|
B|444-444---------|
G|----------------|
D|----------------|
A|----------------|
E|----------------|

Part 1 of Verse (no guitar)

Part 2 0f Verse (dist.electric)
E|-------------------------------------------|
B|-------------------------------------------|
G|10-10-10-13-13-13-13-12-12-12-12-8-8-7-7-7-|
D|10-10-10-13-13-13-13-12-12-12-12-8-8-7-7-7-|
A|-------------------------------------------|
E|-------------------------------------------|

E|------------------------------------------------|
B|------------------------------------------------|
G|10-10-10-13-13-13-13-12-12-12-12-12-12-12-12-12-|
D|10-10-10-13-13-13-13-12-12-12-12-12-12-12-12-12-|
A|------------------------------------------------| (2x)
E|------------------------------------------------|

Chorus (dist. electric)

E|---------------------------------|
B|---------------------------------|
G|---------------------------------|
D|---------------------------------|
A|2-2-2-5-5-5-5-12-12-7-7-9-9-9-9-9| (4x)
E|0-0-0-3-3-3-3-10-10-5-5-7-7-7-7-7|

Verse 2

Chorus (2x)

Bridge (no guitar)

Solo (dist. electric)

E|------------------------4-------|
B|--------------------------3-3-3-|
G|----------------7---------------|
D|------------------6-6-6---------|
A|3/5-5-5-------------------------|
E|--------4-4-4-4-----------------|

Chorus (2x)

Copyright by Forefront Communications

Comments about this tab

guitarguy3000 - 2004-09-17

Hey, Ryan again, the solo might be in the wrong octave, so you might want to tweak that a bit.


kamikaze11202 - 2004-10-28

Does anybody have the words to this?


ImNoDaddysGirl2 - 2004-11-26

for the lyrics to Jesus Freak by DC Talk you can go to www.lyrics.com and click on D then DC Talk and then click the link for the one CD they have and scroll down a bit and number 13 should be Jesus Freak since I was just on there. hope it works! Peace and God Bless!
~Allie


Da Flufsta - 2006-07-09

One thing i noticed when i was listening to the song was that you slide like this
e---------------------------------------------------]
b---------------------------------------------------]
g---------------------------------------------------]
d---------------------------------------------------]
a-2-2-2-5-5-5-5-12-12/11-11/9-9-9-9-9---------------]
e-0-0-0-3-3-3-3-10-10/9--9/-7-7-7-7-7---------------]


godtruth#7 - 2007-08-20

Dude Great tab!
i thought you did great


skilletrocks - 2007-09-11

this sounds a little better for the main riff

----------------------------
-2-2--5-5--12-12\-7-7/9-9---
-0-0--3-3--10-10\-5-5/7-7---


Add a comment/correction

Complimentary Christian Ringtones
Dadamobile and CGR have teamed up to bring your favorite Christian artists right to your phone. Sign up today and get 10 complementary ringtones!
Tab Country
Did you know CGR has a sister site w/ country guitar tabs? Well we do! Its called Tab Country. It has a great archive with a lot of country tabs.
Rockin Tabs
Are you looking for a site that has rock guitar tabs? Then Rockintabs.com is the place for you. It is a budding site with many rock guitar tabs. Submit your tab today.
Tab Gallery
Tab Gallery has a compilation of christian, rock, and country tabs all in one place. Come visit us.