Guitar Tabs
song title    band name

Join Us Today!

Don't strum alone...
be a part of the largest online Christian music community. Browse thousands of guitar tabs and chat w/ musicians like yourself.


It's Free!

This tab has been rated a 4.65 out of 5 for accuracy. (20 votes)Sorry, but you must be logged in to rate this tab.
Click here to log-in, or you can click here to register.
(Registration is free)

All songs owned by corresponding publishing company. If you make copies of any song on this website, be sure to report your usage to CCLI.
Submitted by: Fast_Fingarz

Song:  Reinventing Your Exit
Artist:  Underoath
Album:  They're only chasing safety

Tabbed by:  John (Catfish1988@juno.com)

THIS IS THE TWO GUITAR VERSION.  

In my opinion, the other TAB for this song is only semi-accurate.  But I am 
sorry that this one is kinda long and a bit of a chore to peace together and 
read correctly.  But with a limit of 80 characters across the screen, I tried 
to simplify it as best I could for posting.  

In this arrangement, both guitars are drop D tuning (DADGBe).  This 
song can actually be played standard tuning without any changes to the music.  
All you have to do is take all the fingerings for the drop D string, and play 
them down two more frets for a standard tune version.  I don't give you all 
the strings labels, so your just going to have to figure out how it goes, it 
should be pretty easy, though.

Please rate and/or give comments so I can have some feedback.  Feel free to 
email me as well.  Thx.

() = Palm Mute
\ = Slide down


	  (Intro)
	e|--------3-------3-------3-------3|
Gtr. 2	B|--0-0-0---0-0-0---0-0-0---0-0-0--|
	G|-5-5-5-5---5-5-5---5-5-5---5-5-5-| x4

	D|-7-7-7-7-10-10-10-10-5-5-5-5-5-5-5-5|    |-(55)-7|
Gtr. 1	A|-7-7-7-7-10-10-10-10-3-3-3-3-5-5-5-5|    |-(55)-7|
	D|-7-7-7-7-10-10-10-10-3-3-3-3-5-5-5-5|    |-(55)-7|
					      |            |
	G|-5-5-5-5-5-5-5-5-5-5-5-5-5-5-5-5-5-5|    |------5|
Gtr. 2	D|-x-x-x-x-x-x-x-x-x-x-x-x-x-x-x-x-x-x|    |------5|
	A|-3-3-3-3-3-3-3-3-3-3-3-3-3-3-3-3-3-3| x2 |------3|



	  (Verse 1:A)		
	D|----------(77)-7------------|
Gtr. 1	A|----------(77)-7------------|
	D|----------(77)-7------------|
	                              |
	G|---5----4------5-----5----4-|
Gtr. 2	D|---5----5------5-----5----5-|
	A|---------------3------------|
	D|-3----5------------3----5---|

	  (Verse 1:B)
	D|(7-7-7-7-3-3-3-3-5-5-5-5-2-2-2-2-7-7-7-7-3-3-3-3-5-5-5-5-2-2-2-2)|
Gtr. 1	A|(7-7-7-7-3-3-3-3-5-5-5-5-2-2-2-2-7-7-7-7-3-3-3-3-5-5-5-5-2-2-2-2)|
	D|(7-7-7-7-3-3-3-3-5-5-5-5-2-2-2-2-7-7-7-7-3-3-3-3-5-5-5-5-2-2-2-2)|
									   |
	e|-3-3-------------3-3---------------------------------------------|
	B|-----6-6-5-5-6-6-----6-6-5-5-6-6-5-5-3-3-5-5-6-6-5-5-3-3-5-5-0-0-|
Gtr. 2	G|--5-5-5---5-5-5---5-5-5---5-5-5-5-5-5-5-5-5-5-5-5-5-5-5-5-5-5-5-5|
	


	  (Pre-chorus:A)				       (Pre-chorus:B)
       G|------------------------------5-5-5-5----------------|
       D|-5-5-5-5-7-7-7-7-5-5-5-5------5-5-5-5-7-7-7-7-5-5-5-5|
Gtr. 1 A|-3-3-3-3-7-7-7-7-5-5-5-5-(33)-3-3-3-3-7-7-7-7-5-5-5-5|
       D|-3-3-3-3-7-7-7-7-5-5-5-5-(33)-3-3-3-3-7-7-7-7-5-5-5-5|
							      |		 
       B|-----------------------------------------------------|4-4-455-4-455-5-|
       G|-5-5-5-5-5-5-5-5-5-5-5-5------5-5-5-5-5-5-5-5-5-5-5-5|-4-4-4-4-4-4-4-4|
Gtr. 2 D|-x-x-x-x-x-x-x-x-x-x-x-x------5-5-5-5-x-x-x-x-x-x-x-x|
       A|-3-3-3-3-3-3-3-3-3-3-3-3-(33)-3-3-3-3-3-3-3-3-3-3-3-3|
       D|-------------------------(33)-3-3-3-3----------------|



           (CHORUS:A)				     (Chorus:B)
	D|-7-7-7-7-10-10-10-10-5-5-5-5-5-5-5-5|    |-(55)-7|
Gtr. 1	A|-7-7-7-7-10-10-10-10-3-3-3-3-5-5-5-5|    |-(55)-7|
	D|-7-7-7-7-10-10-10-10-3-3-3-3-5-5-5-5|    |-(55)-7|
					      |		   |
	e|---------------------------[12-13---]            |
	B|---------------------------[------15]		   |
Gtr. 2	G|-5-5-5-5-5-5-5-5-5-5----------------|    |------5|
	D|-x-x-x-x-x-x-x-x-x-x----------------|    |------5|
	A|-3-3-3-3-3-3-3-3-3-3----------------| x2 |------3|

	    On the second repeat, the notes below are played instead of the 
            notes above.  Figure it out.

Gtr. 2	e[13-15-12]
	B[--------]



	  (Verse 2:A)			    (Verse 2:B)
       D|------------(77)-7--------------|(7-7-7-7-3-3-3-3-5-5-5-5-2-2-2-2)|
Gtr. 1 A|------------(77)-7--------------|(7-7-7-7-3-3-3-3-5-5-5-5-2-2-2-2)|
       D|------------(77)-7--------------|(7-7-7-7-3-3-3-3-5-5-5-5-2-2-2-2)|x2
	                                 |
					 |                      (Verse 2:C)
	                                 |-565-----565-656-|  |-565-----0-0-0-0|
Gtr. 2 G|----0-----0------5------0-----0-|-----757---------|x3|-----757-4-4-4-4|
       D|---5-55--5-55----5-----5-55--5-5|		      |---------5-5-5-5|
       A|-----------------3--------------|
       D|-3-----5-------------3-----5----|



	  Go back to (pre-chorus:A) once, and then play (Chorus:A) twice



           	(Bridge:A)

		B|-0-0-0-0--0-0-0-0--------------------|
		G|-9-9-9-9--9-9-9-9--------------------|    
		D|-10101010-10101010\-3-3-3-3--5-5-5-5-|
       Gtr. 1	A|-7-7-7-7--7-7-7-7\--3-3-3-3--5-5-5-5-|
		D|-7-7-7-7--7-7-7-7\--3-3-3-3--5-5-5-5-|
						       |
        	G|-9-9-9-9--9-9-9-9-9-9-9-9-9--9-9-9-9-|
       Gtr. 2	D|-x-x-x-x--x-x-x-x-x-x-x-x-x--x-x-x-x-|
		A|-7-7-7-7--7-7-7-7-7-7-7-7-7--7-7-7-7-| x2

         	  (Bridge:B)
		D|------------------------------7\---------------------------|
       Gtr. 1	A|------------------------------7\---------------------------|
		D|------------------------------7\---------------------------|
		                               				     |
		B|----0------0------0------0------0------0------0-------0----|
       Gtr. 2	G|---5-5-5--5-5-5--5-5-5--5-5-5--5-5-5--5-5-5--5-5-5---5-5-5-|
		D|-----------------------------------------------------------|
		A|-0------3--------------------0------3----------------------|
		D|---------------3------5--------------------3------5--------|
	
		G|(5-5-5-5-5-5-5-5-5-5-5-5-5-5-5-5-5-5-5-5-5-5-5-5-5-5-5-5-5)|
		D|(5-5-5-5-5-5-5-5-5-5-5-5-5-5-5-5-5-5-5-5-5-5-5-5-5-5-5-5-5)|
       Gtr. 1	A|-----------------------------------------------------------|
		D|-----------------------------------------------------------|
		                               				     |
		B|----0------0------0------0------0------0------0-------0----|
       Gtr. 2	G|---5-5-5--5-5-5--5-5-5--5-5-5--5-5-5--5-5-5--5-5-5---5-5-5-|
		D|-----------------------------------------------------------|
		A|-0------3--------------------0------3----------------------|
		D|---------------3------5--------------------3------5--------|

          (Bridge:C)
       D|(7-7-7-7-101010--3-3-3-3-5-5-5-5|   |(7-7-7-7-101010--3-3-3-3-5-5-5-5)|
Gtr. 1 A|(7-7-7-7-101010--3-3-3-3-5-5-5-5|   |(7-7-7-7-101010--3-3-3-3-5-5-5-5)|
       D|(7-7-7-7-101010--3-3-3-3-5-5-5-5|   |(7-7-7-7-101010--3-3-3-3-5-5-5-5)|
	       			         | 				       |
       B|----0-------0-------0-------0---|   |-565-----565-656-565-----565-656-|
       G|---5-5-5---5-5-5---5-5-5---5-5-5|   |-----757-------------757---------|
Gtr. 2 D|--------------------------------|  
       A|-0-------3----------------------|  
       D|-----------------3-------5------|x2
					  


		Next, play (Chorus:A) twice more and end on this chord . . . 

	e|-------------
	B|-0-----------
	G|-9-----------
Gtr. 1	D|-10----------
	A|-7-----------
	D|-7-----------

Gtr. 2	e|-12
			 . . . and let it fade



Again, please leave comments and/or rate so I can have some feedback.  :)

		My name is John
		CGR: Fast_Fingarz
		Email: Catfish1988@juno.com

Live Loud!

Comments about this tab

Fast_Fingarz - 2004-09-11

Hey im sorry, the spacing got messed up somehow on the verse portion of the song and the markers I used to tie guitar parts one and two together got messed up, too. So sorry about that. So watch the lines carefully. Thx.

-Fast Fingarz


Fast_Fingarz - 2004-09-15

The second verse should look like this isntead, im sorry, again, lol.

(Verse 2:A) (Verse 2:B)
D|------------(77)-7--------------|(7-7-7-7-3-3-3-3-5-5-5-5-2-2-2-2)|
Gtr.1 A|------------(77)-7--------------|(7-7-7-7-3-3-3-3-5-5-5-5-2-2-2-2)|
D|------------(77)-7--------------|(7-7-7-7-3-3-3-3-5-5-5-5-2-2-2-2)|x2
|
| (Verse 2:B) (Verse 2:C)
|-565-----565-656-| |-565-----0-0-0-0|
Gtr.2 G|----0-----0------5------0-----0-|-----757---------|x3|-----757-4-4-4-4|
D|---5-55--5-55----5-----5-55--5-5| |---------5-5-5-5|
A|-----------------3--------------|
D|-3-----5-------------3-----5----|


Fast_Fingarz


natshere - 2004-10-19

Hey don't worry about people blaming u for stuff that sometimes you can't help. Don't know what that means? hope you don't mind me just saying this. Plus this song is cool and all so why fret over a broken string. lol


Fast_Fingarz - 2004-12-01

I have an email change to

Its_really_Me@thecatlins.org

If you have comments or corrections please email me there instead of at catfish1988@juno.com. Thank you.


JF77 - 2005-03-10

somebody need to tab the second song on the CD..."A boy brushed red..." great song!


Shebz - 2005-03-25

for the stndard tuning thing...did u mean(when i'm in standard tunning) that I play 2 frets down??
or do u mean that when i'm in standard tuning i can play two frets up? thanx!

ps> when u reply i can rate or whatever!!


alt3rnative - 2005-04-20

this rocks


Staplefan - 2005-05-03

dude this tab is horrible! its nothing like the song....... nah im just playin it rules. great job buddy.


band_fan - 2005-07-02

Hey does anyone have the chords for this song? e-mail them to me at thousendfootkrutchboy@yahoo.com thanks peace


Dark Tofu - 2005-07-15

Shebz on the Drop D thing
You play everything the same except your lowest string which is the e or d string e in standard. If it says five in drop d then do a 3 in standard tuning. only on the low e string.


freak_4_je5u5 - 2005-07-16

Underoath rocks!!!! Great tab, thanks!
Let God have His way!


whodoyourockfor - 2005-07-25

Hey, thats a great tab, does anyone have the tab for "a love so pure"


TFK_TFK - 2005-09-05

If you want a tab for A Boy Brushed Red Living in Black and White you can go to http://www.taborama.com/archive/tab.php?vid=111804&aid=1615&a=Underoath&t=A%20Boy%20Brushed%20With%20Red,%20Living%20In%20Black%20And%20White&i=1.


theselbster - 2005-11-20

this is my all time favorite song by underoath and you did great on the tab.


theselbster - 2005-11-20

Does anybody know the tabs to the changing of times


Mr.Dieslovr - 2005-12-14

uh, yeah this Shebz cuz i can't login cuz i forgot my password and i hate doing all that garbage just to remember it, so yeah....thanx for the info!


Alex_Adinolfi - 2006-01-09

I wish I could read tabs try chords next timee


azn.one.73 - 2006-01-14

the only correction i hafta make is


that you wrote "peace" instead of "piece"

lol great tab


collegerocker17 - 2006-05-08

What are you talking about?????? He shouldn't do chords just cuz you don't know how to read tabs!!! This is a site that utilizes both chords AND tabs for songs. Plus that there's plenty of stuff on this site to help you learn tabs! I'm sick of people complaining about there not being chords cuz they can't read tabs! LEARN!! It's not that hard!!! Otherwise, don't complain about it, or go to a different site. PLEASE!!!


ice_wiz - 2006-05-16

Why don't you stop complaining yourself!! And leave the poor guy alone! Your acting like a big ol' grump!


collegerocker17 - 2006-05-19

Big ol' grump??? I think the proper term is: "Frustrated Person Who Can't Stand People Complaining About Not Being Able TO Read Tabs!" If someone doesn't know how to read tabs and doesn't want to learn, that's fine!! Just don't gripe on other people for not catering to your self-centered, self-inflicted needs!


rytusguitar - 2006-05-20

haha, sounds like a big ol' grump to me


collegerocker17 - 2006-05-21

That's your opinion.
I just think I have a valid complaint.


ice_wiz - 2006-07-11

Well, we don't want to hear it.


massi107 - 2006-08-07

Dude I Don't Know where you got this but I can't seem to play it,I'm posting A new version soon, But altogether it's ok just allitte hard to read


crazyheadbanger - 2006-08-12

dude this tab is awesome u did a great job! now if any1 can just figure out the tabs 4 their new c.d. for the song "Writing On The Walls" that is a great song! their new c.d. rocks! but still great job on this song.


earlessdog - 2006-08-17

you guys are nuts. You're all grumps!!


relientrocker - 2006-11-04

dude this is so sweet!
it is a great tab and pretty easy to understand and play with the song.
thanks!


sumerofdarkness - 2007-01-01

someone should tab in regards to myself....hey thats a good idea i think im gonna get started on that


Ooblar - 2007-03-18

it's a little hard to understand.. but good


Add a comment/correction

Complimentary Christian Ringtones
Dadamobile and CGR have teamed up to bring your favorite Christian artists right to your phone. Sign up today and get 10 complementary ringtones!
Tab Country
Did you know CGR has a sister site w/ country guitar tabs? Well we do! Its called Tab Country. It has a great archive with a lot of country tabs.
Rockin Tabs
Are you looking for a site that has rock guitar tabs? Then Rockintabs.com is the place for you. It is a budding site with many rock guitar tabs. Submit your tab today.
Tab Gallery
Tab Gallery has a compilation of christian, rock, and country tabs all in one place. Come visit us.