Guitar Tabs
song title    band name

Join Us Today!

Don't strum alone...
be a part of the largest online Christian music community. Browse thousands of guitar tabs and chat w/ musicians like yourself.


It's Free!

This tab has been rated a 2.50 out of 5 for accuracy. (2 votes)Sorry, but you must be logged in to rate this tab.
Click here to log-in, or you can click here to register.
(Registration is free)

All songs owned by corresponding publishing company. If you make copies of any song on this website, be sure to report your usage to CCLI.
Submitted by: nirvana42989

Title: This is Your Time
Author: Michael W. Smith
Tabbed by: Joel Marchand
This is as close as I can get it by ear and I donít know the chorus
Capo 3rd fret

Intro and Verse

E ---3----3-----3---2h3p3----------0--------------------------------------
B ---0---------------------3---3-------1---0---------3------------3-------
G ---0--------------------------------------------------0-----------0-----
D ---2--------------0--------------------------------------0-----------0--
A -----------------------------3-----------2-----3-------------2----------
E ------------------------------------------------------------------------

E --------0----------0---0----------2---------
B --0h1------1--1/3----------3\1----3---------
G --0-------------------------------2---------     Repeat until the chorus
D ----------------------------------0---------
A --------------------------------------------
E --------------------------------------------

Comments about this tab

No comments/corrections found. Add your own

Complimentary Christian Ringtones
Dadamobile and CGR have teamed up to bring your favorite Christian artists right to your phone. Sign up today and get 10 complementary ringtones!
Tab Country
Did you know CGR has a sister site w/ country guitar tabs? Well we do! Its called Tab Country. It has a great archive with a lot of country tabs.
Rockin Tabs
Are you looking for a site that has rock guitar tabs? Then Rockintabs.com is the place for you. It is a budding site with many rock guitar tabs. Submit your tab today.
Tab Gallery
Tab Gallery has a compilation of christian, rock, and country tabs all in one place. Come visit us.