Guitar Tabs
song title    band name

Join Us Today!

Don't strum alone...
be a part of the largest online Christian music community. Browse thousands of guitar tabs and chat w/ musicians like yourself.


It's Free!

This tab has been rated a 4.89 out of 5 for accuracy. (19 votes)Sorry, but you must be logged in to rate this tab.
Click here to log-in, or you can click here to register.
(Registration is free)

All songs owned by corresponding publishing company. If you make copies of any song on this website, be sure to report your usage to CCLI.
Submitted by: excalibur

tobyMac
Welcome To Diverse City
Gone

CD comes out in October

here it is:


Intro:
|--------------------------------|
|--------------------------------|
|------------------6-6-----------|
|--8-8---4-4-6-6---6-6--6-6-4-4--|
|--8-8---4-4-6-6---4-4--6-6-4-4--|
|--6-6---2-2-4-4--------4-4-2-2--|

Verse:
Palm Mute
|---------------------------------|
|---------------------------------|
|------------------6-6-6-6--------|
|--8-8-8-8-4-4-6-6-6-6-6-6-6-6-4--|
|--8-8-8-8-4-4-6-6-4-4-4-4-6-6-4--|
|--6-6-6-6-2-2-4-4---------4-4-2--|

Chorus:
|--------------------------------|
|--------------------------------|
|------------------6-6-----------|
|--8-8---4-4-6-6---6-6--6-6-4-4--|
|--8-8---4-4-6-6---4-4--6-6-4-4--|
|--6-6---2-2-4-4--------4-4-2-2--|

That's it. The same riff, with palm mutes and stuff like that

Comments about this tab

excalibur - 2004-09-05

|----------------------------------|
|----------------------------------|
|---14-----14-----14---------------|
|-12--12-12--12-12--12-11-12-14-12-|
|----------------------------------|
|----------------------------------|

This is a riff in the background in the second verse and throughout the song.


excalibur - 2004-09-05

|----------------------------------|
|----------------------------------|
|---13-----13-----13---------------|
|-11--11-11--11-11--11-10-11-13-11-|
|----------------------------------|
|----------------------------------|


21Frets - 2004-11-25

Hey, you forgot the intro(with toby singing)and the solo. Otherwise, right on!!
intro (toby singing)
E------------------------------------------------
B------------------------------------------------
G-6--6--6--6--6--6--6--6--6--6--6--6--6--6--6--6-
D--6--6--6--6--6--6--6--6--6--6--6--6--6--6--6--6
A------------------------------------------------
E------------------------------------------------

bridge (solo)
E------------------------------------------------
B------------------6--------------6-----7-6------
G-6-5-6-5-6-5-6-5----6--------------6-------6-8--
D----------------------6-4-6-3-6------6----------
A------------------------------------------------
E------------------------------------------------

E------------------------------------------------
B-6--------------6--6--6--6--6--6--6--6----------
G---6-------------6--6--6--6--6--6--6--6---------
D-----6-4-6-3-6----------------------------------
A------------------------------------------------
E------------------------------------------------

Thats it. The other one was too high in my opinion. This song is awesome. What I really would like to see is Truett, his son at a concert. That would be sweet.


21Frets - 2004-11-25

Hey, you forgot the intro(with toby singing)and the solo. Otherwise, right on!!
intro (toby singing)
E------------------------------------------------
B------------------------------------------------
G-6--6--6--6--6--6--6--6--6--6--6--6--6--6--6--6-
D--6--6--6--6--6--6--6--6--6--6--6--6--6--6--6--6
A------------------------------------------------
E------------------------------------------------

bridge (solo)
E------------------------------------------------
B------------------6--------------6-----7-6------
G-6-5-6-5-6-5-6-5----6--------------6-------6-8--
D----------------------6-4-6-3-6------6----------
A------------------------------------------------
E------------------------------------------------

E------------------------------------------------
B-6--------------6--6--6--6--6--6--6--6----------
G---6-------------6--6--6--6--6--6--6--6---------
D-----6-4-6-3-6----------------------------------
A------------------------------------------------
E------------------------------------------------

Thats it. The other tab with the solo was too high in my opinion. This song is awesome. What I really would like to see is Truett, his son at a concert. That would be sweet.


21Frets - 2004-11-25

Sorry, didn't mean to add it twice!


Bass_Dude166 - 2004-12-07

This is a great Beginners tabs, I was able to pick it up immediatley! That song by Toby Mac Rocks!


Duck1053 - 2004-12-14

yeah that sounds rite, but if you want the high version of it it's,



e----------------------------13-------------------
B-13-14-13-14-13-14-13-14-13----14----------------
G----------------------------------13-11-13-10-13-

e-13-------14-13-------13-----------------
B----14----------14-16----14-------9----9-
G-------13-------------------13-11---10---


pick4jesus - 2004-12-27

deos any1 know the bass part for this song


camofreak1000 - 2005-02-11

this is about the easiest tab i've ever seen


guitaraddict19 - 2005-02-12

after the high solo, repeating the last 5 notes sounds really cool--especially with a delay or divebomb effect


Kutless Fan - 2005-03-02

i LOVE this song!!!


wwalk841 - 2005-03-03


Thanks I'm so glad I can finnaly get this song!


JJMIL08 - 2005-03-28

After the high guitar solo that is played like this

e----------------------------13-------------------
B-13-14-13-14-13-14-13-14-13----14----------------
G----------------------------------13-11-13-10-13-

e-13-------14-13-------13-----------------
B----14----------14-16----14-------9----9-
G-------13-------------------13-11---10---

on the last verse toby sings right before the last chorus, and there are some chords missing. I could not find them out, any help would be greatly appreciated

great tab!


sixstringes777 - 2005-04-23

the high solo is correct.
if you watch the music video you will see.


sixstringes777 - 2005-04-23

the high solo is correct.
If you watch the video you will see.


jamforchrist123 - 2005-05-02

Its In Drop D. The Guitarist In The Music Video Is Using Only One Finger On The First Three Chords.


demon_kill99 - 2005-05-16

hey u no i was trying to pick it out my self and i got it and say so far so good
u just got 1 mistake if u have yahoo IM my account is jsphakin and ill tell ur mistake


demon_kill99 - 2005-05-16

hwy i tried to pick it myself and i got it so far so good but u have mistake


matt j t - 2005-06-01

hey.....could someone figure out "The Slam"


christ 4 real - 2005-06-01

ill tri


SUPERTABMAN43 - 2005-11-05

yo yo nice and easy tab. Can some1 plz figger out The Slam??? PLEASE!!! that song rocks.
thnx
SUPERTABMAN


guitar_boy68 - 2006-02-17

Pretty good tab I thought.I'm with Matt tj too someone please figure out the slam! lol


guitar_boy68 - 2006-02-17

matt jt i meant my bad lol


Add a comment/correction

Complimentary Christian Ringtones
Dadamobile and CGR have teamed up to bring your favorite Christian artists right to your phone. Sign up today and get 10 complementary ringtones!
Tab Country
Did you know CGR has a sister site w/ country guitar tabs? Well we do! Its called Tab Country. It has a great archive with a lot of country tabs.
Rockin Tabs
Are you looking for a site that has rock guitar tabs? Then Rockintabs.com is the place for you. It is a budding site with many rock guitar tabs. Submit your tab today.
Tab Gallery
Tab Gallery has a compilation of christian, rock, and country tabs all in one place. Come visit us.