Guitar Tabs
song title    band name

Join Us Today!

Don't strum alone...
be a part of the largest online Christian music community. Browse thousands of guitar tabs and chat w/ musicians like yourself.


It's Free!

This tab has not yet been rated for accuracy.Sorry, but you must be logged in to rate this tab.
Click here to log-in, or you can click here to register.
(Registration is free)

All songs owned by corresponding publishing company. If you make copies of any song on this website, be sure to report your usage to CCLI.
Submitted by: hoowahfun

Song: Knocked Out
Artist: Bleach


I didn't see this song on the site and I really wanted to play it so I
figured it out the best that I could and thought that I'd share.  Don't
hesitate to email me with comments or mistakes. Thanks.

Intro/First Verse
e]----------------------
B]----------------------
G]---6-7-6-7-7----------
D]--0-0-0-0-0-----------
A]----------------------
E]----------------------
pretty much just repeat that the whole time.

Chorus
e]----------------------
B]----------------------
G]----------------------
D]--7---4---------------
A]--5---2---5-----------
E]----------3-----------
the timing and number of strums isn't represented here.

Second Verse

Guitar 1
e]----------------------
B]----------------------
G]---6-7-6-7-7----------
D]--0-0-0-0-0-----------
A]----------------------
E]----------------------
same as intro/first verse

Guitar 2
e]----------------------
B]----------------------
G]--7---7~--------------
D]--x---x~--------------
A]--5---5~--------------
E]----------------------
repeat the first part a few times and listen for the timing and strums. then
hold the last strum. repeat this twice.

Play the chorus again.

Solo
e]----------------------
B]----------------------
G]--7b----11b-----------
D]-----9b---------------
A]----------------------
E]----------------------
i'm not too sure about the solo, but this is what i came up with. repeat it
twice.

Bridge
e]----------------------
B]----------------------
G]----------------------
D]--7-------------------
A]--5---7/5-------------
E]------5/3-------------
the timing is kinda weird here but listen to the cd and you should get it
right.  timing and strums isn't represented here.  play this till the end.

Comments about this tab

No comments/corrections found. Add your own

Complimentary Christian Ringtones
Dadamobile and CGR have teamed up to bring your favorite Christian artists right to your phone. Sign up today and get 10 complementary ringtones!
Tab Country
Did you know CGR has a sister site w/ country guitar tabs? Well we do! Its called Tab Country. It has a great archive with a lot of country tabs.
Rockin Tabs
Are you looking for a site that has rock guitar tabs? Then Rockintabs.com is the place for you. It is a budding site with many rock guitar tabs. Submit your tab today.
Tab Gallery
Tab Gallery has a compilation of christian, rock, and country tabs all in one place. Come visit us.