Guitar Tabs
song title    band name

Join Us Today!

Don't strum alone...
be a part of the largest online Christian music community. Browse thousands of guitar tabs and chat w/ musicians like yourself.


It's Free!

Audio Adrenaline - Big House

This tab has been rated a 1.00 out of 5 for accuracy. (1 vote)Sorry, but you must be logged in to rate this tab.
Click here to log-in, or you can click here to register.
(Registration is free)

All songs owned by corresponding publishing company. If you make copies of any song on this website, be sure to report your usage to CCLI.
Author/Artist: Audio Adrenaline
Title: Big House
Album: Don't Censor Me
Transcribed by: Matt Gates
Email: aslane@juno.com

We used to do this as a worship song for the 
University of Toledo's Campus Crusade Band.
This is the lead stuff that I came up with by listening
to the CD.  It is not exactly like the album but it is still
pretty cool.

------------------------------------------------------------------------------
------------------------------------------------------------------------------
------------------------------------9-----------------------------------------
------------7------7-----6--6-------9--------------------------7-x-x--x-------
---4-4------7--7h9-------7--7h9/11--------------12\--4--4------7-x-x--x--7h9--
---5-5h7/9--------------------------------------12\--5--5h7/9----x-x--x-------
  Intro:                             

------------------12-12p10----------------------------------------------------
------------------12-12p10-12-------------------------------------------------
------------9--------------12-------------------------------------------9-----
-6--6-------9------------------------------7---x-x--x------7---6-6------9-----
-7--7h9/11-----------------------4--4------7---x-x--x--7h9-----7-7h9/11-------
---------------------------------5--5h7/9------x-x--x-------------------------
                                                                              

-------------------|----------------------------------------------12-12p10--|-
-------------------|----------------------------------------------12-12p10--|-
-x-x--x------------|-------------------------------------------9----------12|-
-x-x--x--------9---|------------7--x-x--x-------7---6--6-------9----------12|-
-x-x--x--9h11------|--4--4------7--x-x--x--7h9------7--7h9/11---------------|-
-------------------|--5--5h7/9-----x-x--x-----------------------------------|-
                     You could do this next lick or the lick after for a      

-|------------------------------------------------------------------------|---
-|--------------------x-x--x------------------------------17---17-17p15---|---
-|----------------14--x-x--x------------14---13-13--------16------------16|---
-|---11-11--------14--x-x--x----14h16--------14-14h16/18------------------|---
-|---12-12h14/16----------------------------------------------------------|---
-|------------------------------------------------------------------------|---
 little variation                                                             

--11/12--12----x---9--9----x--9--9---x-x---9-/10--10-|x--10/12-12-x--12-------
--11/12--12----x---10-10---x--10-10--x-x---9-/10--10-|x--10/12-12-x--12-------
--13/14--14----x---11-11---x--11-11--x-x---10/11--11-|x--11/13-13-x--13-------
--13/14--14----x---11-11---x--11-11--x-x---11/12--12-|x--12/14-14-x--14-------
--11/12--12----x---9--9----x--9--9---x-x---11/12--12-|x--12/14-14-x--14-------
--11/12--12----x---9--9----x--9--9---x-x---9-/10--10-|x--10/12-12-x--12-------
  Verse Riff                                         repeat to bar then       

---------------x-12-12--x--10-10----------------------------------------------
---------------x-12-12--x--10-10----------------------------------------------
---------------x-13-13--x--11-11----------------------------------------------
---------------x-14-14--x--12-12----------------------------------------------
---------------x-14-14--x--12-12----------------------------------------------
---------------x-12-12--x--10-10----------------------------------------------
 end with this                                                                

------------------------------------------------------------------------------
------------------------------------------------------------------------------
-------------------------------------------------------9----------------------
-----------------------------------7------6---6--------9---11------------7----
--------------------4------4-------7--9---7---7--9/11------11---4--4-----7-9--
--------------------5------5--7/9-----9-------------------------5--5-7/9---9--
 Pre-Chorus Riff                                                              

------------------------------------------------------------------------------
------------------------------------------------------------------------------
-----------9---11-11p9--------------------------------------------------------
--6--------9---11-11p9-11-----------------------------------------------------
--7--9/11--------------11-----------------------------------------------------
------------------------------------------------------------------------------
                    Chorus riff is the same as the intro riff w/variations    

------------------------------------------------------12h14--12---------------
------------------------------------------------------12h14--12--14-12--------
-----------------------------------------------------------------14-12--------
------------------------------------------------------------------------------
------------------------------------------------------------------------------
------------------------------------------------------------------------------
 Ending Lick 

------------------------------------------------------------------------------
------------------------------------------------------------------------------
------------12----------------------------------------------------------------
-12h14p12-------12------------------------------------------------------------
--------------------12vvv-----------------------------------------------------
------------------------------------------------------------------------------

Comments about this tab

blazer - 2005-05-05

dude this totally sucks


Tyler Campbell - 2007-04-02

is this your first tab? if not work on your tabbing skils K


Add a comment/correction

Complimentary Christian Ringtones
Dadamobile and CGR have teamed up to bring your favorite Christian artists right to your phone. Sign up today and get 10 complementary ringtones!
Tab Country
Did you know CGR has a sister site w/ country guitar tabs? Well we do! Its called Tab Country. It has a great archive with a lot of country tabs.
Rockin Tabs
Are you looking for a site that has rock guitar tabs? Then Rockintabs.com is the place for you. It is a budding site with many rock guitar tabs. Submit your tab today.
Tab Gallery
Tab Gallery has a compilation of christian, rock, and country tabs all in one place. Come visit us.