Guitar Tabs
song title    band name

Join Us Today!

Don't strum alone...
be a part of the largest online Christian music community. Browse thousands of guitar tabs and chat w/ musicians like yourself.


It's Free!

This tab has been rated a 5.00 out of 5 for accuracy. (1 vote)Sorry, but you must be logged in to rate this tab.
Click here to log-in, or you can click here to register.
(Registration is free)

All songs owned by corresponding publishing company. If you make copies of any song on this website, be sure to report your usage to CCLI.
Submitted by: iamthemetalking

Presence of God by Living Sacrifece
From the CD "Reborn"

Tabbed by me

The other tab was completely wrong, so here is the right way

tuning: Standard


riff 1
e--6---7---6---6---6---4---4---4---4--4------
b--5---5---5---5---5---5---5---5---5 -5------
g--4---4---4---4---4---4---4---4---4--4------
d---------------------------------------------
a---------------------------------------------
E---------------------------------------------

Riff 2


e--------------------------------------------
b----8---8---8---8---8---6---6--6---6-----------------
g----6---6---6---6---6---6---6--6---6----------------
d----6---6---6---6---6---6---6--6---6-----------------
a--------------------------------------------
E--------------------------------------------


riff 3


e----9---9--9--9----9--9--9--9------------------
b----5---5--5--5----6--6--6--6------------------
g---------------------------------------



riff 4


e-----------------------------------------
b----6--6--6----5--5--5---5---5--5----6--6--6---------
g----x--x--x----x--x--x---x---x--x----x--x--x---------
d----3--3--3----8--8--8---8---8--8----9--9--9---------
a-----------------------------------------
E----------------------------------------- about 2x

then to riff 2 about 3x
then to riff 1 (with slower chord changes, but same chords) 2x i think

and by golly, thats it.  those riffs are in order that they appear in the song.
there is some background guitar chords and some picking, but its not important to
the overall melody of the song. if you have 2 guitarists, it would be worth learning.

You'll have to listen to how many times each riff is done, but that is all you need
to know, so you can figure it out

Comments about this tab

iamthemetalking - 2004-09-03

riff 1
e--6---7---6---6---6---4---4---4---4--4------
b--5---5---5---5---5---5---5---5---5 -5------
g--4---4---4---4---4---4---4---4---4--4------
d---------------------------------------------
a---------------------------------------------
E---------------------------------------------

OK, somehow riff 1 got messed up, so ignore that '7 5 4' part


Add a comment/correction

Complimentary Christian Ringtones
Dadamobile and CGR have teamed up to bring your favorite Christian artists right to your phone. Sign up today and get 10 complementary ringtones!
Tab Country
Did you know CGR has a sister site w/ country guitar tabs? Well we do! Its called Tab Country. It has a great archive with a lot of country tabs.
Rockin Tabs
Are you looking for a site that has rock guitar tabs? Then Rockintabs.com is the place for you. It is a budding site with many rock guitar tabs. Submit your tab today.
Tab Gallery
Tab Gallery has a compilation of christian, rock, and country tabs all in one place. Come visit us.