Guitar Tabs
song title    band name

Join Us Today!

Don't strum alone...
be a part of the largest online Christian music community. Browse thousands of guitar tabs and chat w/ musicians like yourself.


It's Free!

This tab has not yet been rated for accuracy.Sorry, but you must be logged in to rate this tab.
Click here to log-in, or you can click here to register.
(Registration is free)

All songs owned by corresponding publishing company. If you make copies of any song on this website, be sure to report your usage to CCLI.
Submitted by: kylebmx

Band-Calibretto 13
Album-Adventures in Tokyo
Song-The Night They Took You
Copyright-2002, Tooth and Nail

intro the second time through(bass is in parenthesis)
e------------------------------------------------------------------------
B------------------------------------------------------------------------
G------------------------------------------------------------------------
D-5--(5)-(4)-------5-(5)-(4)----------5-(5)-(4)-------------------------
A-5--------(5)-(4)-5---------(5)-(4)--5---------(5)-(4)-(6)-(5)--------
E-3----------------3------------------3-------------------------(6)-(5)

First verse part 1,4x
e----------------------------------
B---------------------------------
G---6-6---6-6---6-6---6-5-3-
D-5-6-6-5-6-6-5-6-6-5-6-5-3--
A-5-4-4-5-4-4-5-4-4-5-4-3-1--
E-3-----3-----3-----3----------

verse part 2, 2x
e----------------------------------------
B----------------------------------------
G-6-66---6-66---6-66---6-66---5-3--------
D-6-66-5-6-66-5-6-66-5-6-66-5-5-3--------
A-4-44-5-4-44-5-4-44-5-4-44-5-3-1--------
E------3------3------3------3------------

Chorus 2x
e-------------------------------------------------
B-------------------------------------------------
G-------------6-5-5-5-5-5-6-6-3-3-----------------
D-5-5-5-5-3-3-6-6-5-5-5-5-6-6-3-3-5-5-5-5---------
A-5-5-5-5-3-3-4-4-3-3-3-3-4-4-1-1-5-5-5-5---------
E-3-3-3-3-1-1---------------------3-3-3-3---------

first verse, part 1

verse 2, 2x
e---------------------------------------
B---------------------------------------
G----------6----------6---------6-5-3
D-5--------6-5--------6-5-------6-5-3
A-5--------4-5--------4-5-------4-3-1
E-3----------3-----------3-------------

first verse, part 2

chorus

first verse, part 1

over organ it might by verse 1 part 1 but i dont know

first verse, part 1

intro


its something like that. a great song by a 
band second only to blaster the rocketman.
it really stinks that calibretto is breaking up.
if your a blaster or calibretto fan in the southern
illinios area make a comment. kyle out

Comments about this tab

No comments/corrections found. Add your own

Complimentary Christian Ringtones
Dadamobile and CGR have teamed up to bring your favorite Christian artists right to your phone. Sign up today and get 10 complementary ringtones!
Tab Country
Did you know CGR has a sister site w/ country guitar tabs? Well we do! Its called Tab Country. It has a great archive with a lot of country tabs.
Rockin Tabs
Are you looking for a site that has rock guitar tabs? Then Rockintabs.com is the place for you. It is a budding site with many rock guitar tabs. Submit your tab today.
Tab Gallery
Tab Gallery has a compilation of christian, rock, and country tabs all in one place. Come visit us.