Guitar Tabs
song title    band name

Join Us Today!

Don't strum alone...
be a part of the largest online Christian music community. Browse thousands of guitar tabs and chat w/ musicians like yourself.


It's Free!

This tab has been rated a 2.00 out of 5 for accuracy. (1 vote)Sorry, but you must be logged in to rate this tab.
Click here to log-in, or you can click here to register.
(Registration is free)

All songs owned by corresponding publishing company. If you make copies of any song on this website, be sure to report your usage to CCLI.
Submitted by: ErockVillage

Artist: Five Iron Frenzy
Song: Blue Mix
Album: Five Iron Frenzy 2: Electric Boogaloo

chords:
   B     F#     D     A     E     G       E*      F#*
---------------------------------------------------------
---------------------------------------------------------
--4------------7------2-------------------9-------11-----
--4------4-----7------2-----2-----5-------9-------11-----
--2------4-----5------0-----2-----5-------7--------9-----
---------2------------------0-----3----------------------

Intro:
B  F#   D   B    A   E

B  G    D   E*  F#*  A    played 2x


Verse:
----------------------------------------------
----------------------------------------------
-------------2-2-------1-1-------0-0----------
--------4-4-------4-4-------2-2-------4-------
---2-2----------------------------------------
----------------------------------------------   8x


Pre-Chorus:
A    D    B   G   F#

A    D    B   ....then its these two weird chords: --------------------
                                                   --------------------
                                                   --------------------
                                                   --4-------2---------
                                                   --5-------2---------
                                                   --3-------3---------

Chorus:
D    A    E*   G
                                       ^-bend
D    A   .....then this little fill:  -----------------------
                                      -----------------------
                                      --6^7--6--4--3---------
                                      -----------------------
                                      -----------------------
                                      -----------------------
then the chorus finishes with:
D   A    B    G    F#


intro again, played once this time:

Verse 2

Chorus is the same but after the fill lick play:
D    A    B  .... then: --------------
                        --------------
                        --------------
                        --------------
                        ---9----------
                        ---6----------


Then its the bridge with a cool guitar lead thing:        /-slide
---------------------------------------------------------------------
---------------------------------------------------------------------
---6h7-4----6h7-7/9--7-6-4-2----6h7 7/9--7-6-2----6h7-7/9--7-6-4-2---
---------------------------------------------------------------------
---------------------------------------------------------------------
---------------------------------------------------------------------

then changes keys and you play this while he is still singing:
-----------------------------------------
-----------------------------------------
--11-12-11---11h12-12/14---11h12-12/14---
-----------------------------------------
-----------------------------------------
-----------------------------------------

then the guitar take the lead and plays:
--------------------------------------------------------
--------------------------------------------------------
--11h12-12/14--12-11-7----11h12-12/14--12-11-9-7-4-2----
--------------------------------------------------------
--------------------------------------------------------
--------------------------------------------------------


-----------------------------------------------------------------------------
-----------------------------------------------------------------------------
-11h12-12/14--12-11-7----11h12-12/14--12-11-9-9-9-9-9-9-9-9-9-9-9-9-9-9-9-9--
-----------------------------------------------------------------------------
-----------------------------------------------------------------------------
-----------------------------------------------------------------------------

and then it goes into the verse lick 3x and cut off the four time into the
fill:
-------------------------------
-------------------------------
---------22------6^7-6-4-2-----
------44----44-----------------
---22--------------------------
-------------------------------

then play the chorus and the intro


So thats the song.  I'm pretty sure its all right.  i went over it
with my guitar teacher so im pretty sure thats it, plus it sounds good
with the song.  any questions email me at selectsoda@msn.com.  God Bless.
-Erock

Comments about this tab

No comments/corrections found. Add your own

Complimentary Christian Ringtones
Dadamobile and CGR have teamed up to bring your favorite Christian artists right to your phone. Sign up today and get 10 complementary ringtones!
Tab Country
Did you know CGR has a sister site w/ country guitar tabs? Well we do! Its called Tab Country. It has a great archive with a lot of country tabs.
Rockin Tabs
Are you looking for a site that has rock guitar tabs? Then Rockintabs.com is the place for you. It is a budding site with many rock guitar tabs. Submit your tab today.
Tab Gallery
Tab Gallery has a compilation of christian, rock, and country tabs all in one place. Come visit us.