Guitar Tabs
song title    band name

Join Us Today!

Don't strum alone...
be a part of the largest online Christian music community. Browse thousands of guitar tabs and chat w/ musicians like yourself.


It's Free!

This tab has been rated a 4.83 out of 5 for accuracy. (6 votes)Sorry, but you must be logged in to rate this tab.
Click here to log-in, or you can click here to register.
(Registration is free)

All songs owned by corresponding publishing company. If you make copies of any song on this website, be sure to report your usage to CCLI.
Submitted by: ascension

--------------------------------------------------------------------------------
                        From Underneath - Hawk Nelson
--------------------------------------------------------------------------------
First I must say that Taylorplayer04 helped me out on this one a ton!  Thanks
Taylor!  This is a pretty difficult tab to do.... hard to hear what they are 
playing but here's what I came up with...(with the help of Taylor).  Hard to tab
easy to play!  Enjoy!

Tabbed by: Ascension
Written by: Hawk Nelson
Copyright 2004
Tooth and Nail Records

Intro (Clean)or(Acoustic)

E|--7--4--2--0--
B|--7--4--2--0-- Play once before verse.         Note: On these chords it sounds
G|--8--5--3--1-- Then play 2x during verse.      like only the E,A,D, and G 
D|--9--6--4--2--                                 strings are played.
A|--9--6--4--2--
E|--7--4--2--0--
    B  G# F# E 

Single notes during verse (clean or acoustic)

E|-7----------------------------------------- 9-
B|-7----------------------------------------- 9-  Remember on the chords to only
G|-8-----------------------------------------10-  play E,A,D, and G. Other notes
D|-9---9----9------99---9-------99----9------11-  are optional.
A|-9--7-7----7-7--9--9---9-9--11--11---11-11-11-  
E|-7-7----7---7--7-----7--7--7-------7---7--- 9-   To chorus

Chorus (Clean or Acoustic)

E|-4--12--7--2-
B|-4--12--7--2- Repeat 2x then to verse 2.
G|-5--13--8--3-
D|-6--14--9--4-
A|-6--14--9--4-
E|-4--12--7--2-

Verse 2 (Clean or Acoustic)

E|--7--4--2--0--
B|--7--4--2--0-- 
G|--8--5--3--1-- Play 2x during verse.  
D|--9--6--4--2--                                 
A|--9--6--4--2--
E|--7--4--2--0--
    B  G# F# E 

Single notes during verse 2 (clean or acoustic)

E|-7----------------------------------------- 9-
B|-7----------------------------------------- 9-  Remember on the chords to only
G|-8-----------------------------------------10-  play E,A,D, and G. Other notes
D|-9---9----9------99---9-------99----9------11-  are optional.
A|-9--7-7----7-7--9--9---9-9--11--11---11-11-11-  
E|-7-7----7---7--7-----7--7--7-------7---7--- 9-   To chorus

Chorus 2 (Clean or Acoustic)

E|-4--12--7--2-
B|-4--12--7--2- Repeat 2x.
G|-5--13--8--3-
D|-6--14--9--4-
A|-6--14--9--4-
E|-4--12--7--2-

Outro (Clean or Acoustic)

E|-7-----------------------------------------7-
B|-7-----------------------------------------7-  Remember on the chords to only
G|-8-----------------------------------------8-  play E,A,D, and G. Other notes
D|-9---9----9------99---9-------99----9------9-  are optional.
A|-9--7-7----7-7--9--9---9-9--11--11---11-11-9-  
E|-7-7----7---7--7-----7--7--7-------7---7---7-

These chords could also be played w/ just the E, A, and the D string.
Thats pretty much it.  There is what sounds like a xylophone in the back ground
the notes for this are.
         
F# E D# B F# E D# C# C# D# B C# D# B B

Thats everything!  Hope everyone enjoys!
And once again thanks soo much Taylorplayer04 for the chords!

God Bless,
Ascension

Comments about this tab

ascension - 2004-08-27

comments or questions???


krutchfan66 - 2004-10-15

Dude yeah! Im listenin 2 dat song right now.


david4jesus - 2004-12-22

great job on the tab im trying to learn the song right now, do you think you could tab the song 36 days thanks for the tab God bless


SunnyDays102 - 2005-01-03

ahaha.... xylophone.... yes thats so awsome. nice tab too.


mike17 - 2005-01-11

it would be awesome if you could tab Right Here. Nice job on this song


ercsguitar - 2005-01-13

Actually its a toy piano that's playing in the song


GuitarAddict830 - 2005-02-11

Dude this song rocks the weekend.....


taylor_playa - 2005-02-22

This is pretty close but I will be posting a more accurate version here pretty soon. If you notice in the intro there is more than just a chord, it's almost like a second guitarist it playing.Also in the pre-chorus (Do you remember that cold day in december) he plays single notes. There's quite a few tranisitions dunno if it's how he plays it but should be pretty close.


only1gd - 2005-08-16

thats right on... i kinda figured out the little solo that sounds like a piano ...i couldn't find it here so i thought i might add it on:

(in the begining of the song)
e--------------------------------
B--7-------7---------------------
G----9-8-----9-8-6--6-8---6-8----
D--------9--------------9-----9-9
A--------------------------------
E--------------------------------

(in the end of the song)
e--------------------------------
B-7-------7----------------------
G---9-7-7---9-8---6-8------------
D---------------9------9--9~~~~~~
A--------------------------------
E--------------------------------

i'm 100% but if you don't think it is then u have problems...ha...just kidding...if it is wrong in anyway (which i'm sure it's not) please correct me! Laterz.. GOD bless!!!


farfromhim - 2005-09-20

In the chorus, the E can be played as:
-7--
-9--
-9--
-9--
-7--
-7--


mmggppmgp - 2005-12-05

its sounds like its power chords and the G# is not a major but a minor
E-4
B-4
G-4
D-6
A-6
E-4


myearlynovember - 2005-12-11

actually
the little part in the beginning
that sounds like chimes
sounds much better played like this

e----14-12-------14-12----12-12-14----12-14----
b----------16-12-------16----------12-------12-
g----------------------------------------------
d----------------------------------------------
a----------------------------------------------
e----------------------------------------------


myearlynovember - 2005-12-11

oops
sorry
i made a typo


e----14-12-------14-12-------------------------
b----------16-12-------16-14-14-16-12-14-16-12-
g----------------------------------------------
d----------------------------------------------
a----------------------------------------------
e----------------------------------------------


ifonlyyouwere - 2006-03-19

One of the instrumets playing that part at the beginning is a glockenspiel. I'm not sure but it sounds like a vibraphones playing with it.


sac346 - 2006-10-04

Very cool! love this song.


aznboi1991 - 2008-11-27

ummmm...i am new here and i want to learn how to play the xylophone part to his song...wut do those numbers mean by the note letters?


aznboi1991 - 2008-11-27

like all the xylophone parts...the beggining,middle,and the endding


aznboi1991 - 2008-11-27

because when i tried the begging part, i got: G F E C G F E D D E C D E C C


Add a comment/correction

Complimentary Christian Ringtones
Dadamobile and CGR have teamed up to bring your favorite Christian artists right to your phone. Sign up today and get 10 complementary ringtones!
Tab Country
Did you know CGR has a sister site w/ country guitar tabs? Well we do! Its called Tab Country. It has a great archive with a lot of country tabs.
Rockin Tabs
Are you looking for a site that has rock guitar tabs? Then Rockintabs.com is the place for you. It is a budding site with many rock guitar tabs. Submit your tab today.
Tab Gallery
Tab Gallery has a compilation of christian, rock, and country tabs all in one place. Come visit us.