Guitar Tabs
song title    band name

Join Us Today!

Don't strum alone...
be a part of the largest online Christian music community. Browse thousands of guitar tabs and chat w/ musicians like yourself.


It's Free!

This tab has not yet been rated for accuracy.Sorry, but you must be logged in to rate this tab.
Click here to log-in, or you can click here to register.
(Registration is free)

All songs owned by corresponding publishing company. If you make copies of any song on this website, be sure to report your usage to CCLI.
Author/Artist: Fono
Title: Now she's 24
Album: self titled
Transcribed by: jed carson
Email: godchasin@truthmail.com

The main part has two guitars, but this is a composite arrangement.  There
are only 2 main parts, but the song is outstanding.  I wish I had the words 
here in this tab.

Fono is an awesome band, but not very well known.  Anyone who sees this tab 
should check them out.  They are like the Goo Goo Dolls, but better.

Intro/verse/prechorus chords
  Em7  Dsus ?    C9
--0----0----0----0------------------------------------------------------------
--3----5----5----3------------------------------------------------------------
--0----0----0----0------------------------------------------------------------
--2----4----4----2------------------------------------------------------------
--2----5----4----3------------------------------------------------------------
--0---------------------------------------------------------------------------

Pattern based on chords for verse/solo/prechorus
----------0------------0--------------------0------------0--------------------
----------3------------3-------------3/5----5------------5--------------------
----------0------------0-------------0/0----0------------0--------------------
--2----2--2----2----2--2----2--2--2--2/4----4----4----4--4----4----4--4-------
--2----2-------2----2-------2--2--2--3/5---------5----5-------5----5--5-------
--0----0-------0----0-------0--0--0-------------------------------------------

---------0------------0---------------------0---------------------------------
---------5------------5---------------------3---------------------------------
---------0------------0---------------------0---------------------------------
-4----4--4----4----4--4----4--4--4--2----2--2----2----2--2--------------------
-4----4-------4----4-------4--4--4--3----3-------3----3--3--------------------
------------------------------------------------------------3-2---------------

Chorus-   
  G    C9   Bb   G/F
--3----3----3----3------------------------------------------------------------
--3----3----3----3------------------------------------------------------------
--0----0----0----0------------------------------------------------------------
--0----2----x----0------------------------------------------------------------
--2----3----1----x------------------------------------------------------------
--3--------------1------------------------------------------------------------

Solo- played over verse chords
------------------------------------------------------------------------------
------------------------------------------------------------------------------
------------------------------------------------------------------------------
---------9--9-----------9----9---9h10--9--------------------------------------
--10-10----------10-10--------------------------------------------------------
------------------------------------------------------------------------------

--------7--7----------7----7--7h8--7------------------------------------------
--8--8----------8--8----------------------------------------------------------
------------------------------------------------------------------------------
------------------------------------------------------------------------------
------------------------------------------------------------------------------
------------------------------------------------------------------------------

--7h8--8--8-8--8--------------------------------------------------------------
------------------------------------------------------------------------------
------------------------------------------------------------------------------
------------------------------------------------------------------------------
------------------------------------------------------------------------------
------------------------------------------------------------------------------

Comments about this tab

No comments/corrections found. Add your own

Complimentary Christian Ringtones
Dadamobile and CGR have teamed up to bring your favorite Christian artists right to your phone. Sign up today and get 10 complementary ringtones!
Tab Country
Did you know CGR has a sister site w/ country guitar tabs? Well we do! Its called Tab Country. It has a great archive with a lot of country tabs.
Rockin Tabs
Are you looking for a site that has rock guitar tabs? Then Rockintabs.com is the place for you. It is a budding site with many rock guitar tabs. Submit your tab today.
Tab Gallery
Tab Gallery has a compilation of christian, rock, and country tabs all in one place. Come visit us.