Guitar Tabs
song title    band name

Join Us Today!

Don't strum alone...
be a part of the largest online Christian music community. Browse thousands of guitar tabs and chat w/ musicians like yourself.


It's Free!

This tab has been rated a 4.25 out of 5 for accuracy. (4 votes)Sorry, but you must be logged in to rate this tab.
Click here to log-in, or you can click here to register.
(Registration is free)

All songs owned by corresponding publishing company. If you make copies of any song on this website, be sure to report your usage to CCLI.
Submitted by: Hosch

I saw the first tab for Horizons and it was pretty good, but I'm 100% correct 
that this song is for 1 guitar and it is in Drop D tuning (DADGBE).  I also added some 
tabs for some chords that sounded right to me.  So, here you go, this is an 
awesome song.

Intro:
w/ fast delay
E------------------------------------------------------------------11----9--
B---11----11----9-----9--------11----11-------11----9-----9-----9--
G---10----------10----8h10----10----8h10---10----10--------------
D--------------------------------------------------------------------------
A--------------------------------------------------------------------------
D--------------------------------------------------------------------------
Verse:
w/ fast delay
E------------------------------------------------------------------11----13-13----9--9--
B---11----11----9-----9--------11----11-------11----9-----9------9--9-----9--9--
G---10----------10----8h10---10----8h10---10---10-----------------------------   x2
D-----------------------------------------------------------------------------------------
A-----------------------------------------------------------------------------------------
D-----------------------------------------------------------------------------------------
Pre-Chorus:
w/ distortion
E------------------------------------------------------------------------------------------------------
B-------------------------------------------------------------6----------------------------------------
G-----------6-------6p5-------------5--------------5h6----6------6------6p5--------------5-------5h6--5
D---8--8--------8--------6----6---6-----6--6---6--------------8-------8---------6---6--6----6--6------
A---8--8--------8--------------6----------6--6-------------------8-------8-------------6--------6--6---
D---8--8--------8--------------6----------6--6-------------------8-------8-------------6--------6--6---

E------------------------------------------------------------------------------------------------------
B-------------------------------------------------------------6----------------------------------------
G-----------6-------6p5-------------5--------------5h6---6------6------6p5------------5----------------
D---8--8-------8--------6----6---6----6--6--6--------------8-------8---------6--6---6---6--6--8--8--8
A---8--8-------8--------------6---------6--6------------------8-------8-------------6-------6--6--6--6--6
D---8--8-------8--------------6---------6--6------------------8-------8-------------6------6--6--6--6--6
Chorus:
w/ distortion
E---------------------------------------------------------              E------------------------
B---------------------------------------------------------              B------------------------
G---------------------------------------------------------x3  then G------------------------
D---6----------8---------8--8---------11------11------            D---4---------6---------
A---4---x16---8---x8---8--8--8--9-------9------(9)*             A---4---x8---6---x8---
D---4----------8---------8--8---------------------------             D---4---------6---------
* 2nd time don't play this note
Bridge:
w/ distortion
E---6--6----6--6----6--6----6--6--6--6--6--6----6--6----6--6----6--6----6--6--6--6--6--6---
B---6--6----4--4----6--6----4--4--4--4--6--6----6--6----4--4----6--6----6--6--6--6--4--4---
G------------------------------------------------------------------------------------------ x4
D------------------------------------------------------------------------------------------
A------------------------------------------------------------------------------------------
D------------------------------------------------------------------------------------------
Outro:
w/ fast delay
E--------------------------------------------------------------------11----9*---
B---11----11----9----9--------11----11-----------11----9----9-----9----
G---10----------10----8h10----10----8h10-----10----10------------- x2  *2nd time don't play this
D--------------------------------------------------------------------------                chord
A--------------------------------------------------------------------------
D--------------------------------------------------------------------------

Intro
Verse
Pre-Chorus
Chorus
Verse
Pre-Chorus
Chorus
Bridge
Pre-Chorus
Chorus (play 2nd part of chorus 3 times)
Outro

Tabbed by Hosch

So, there it is, hope you enjoy.  If you have any comments or corrections, please e-mail
me, invader_ben@yahoo.com.  God bless.

Comments about this tab

Emery37 - 2005-01-05

it sounds good. and its easy too.


wwalk841 - 2005-03-05

Thanx, I luv this song.


Elijah Martinez - 2005-09-23

sounds good!


Add a comment/correction

Complimentary Christian Ringtones
Dadamobile and CGR have teamed up to bring your favorite Christian artists right to your phone. Sign up today and get 10 complementary ringtones!
Tab Country
Did you know CGR has a sister site w/ country guitar tabs? Well we do! Its called Tab Country. It has a great archive with a lot of country tabs.
Rockin Tabs
Are you looking for a site that has rock guitar tabs? Then Rockintabs.com is the place for you. It is a budding site with many rock guitar tabs. Submit your tab today.
Tab Gallery
Tab Gallery has a compilation of christian, rock, and country tabs all in one place. Come visit us.