Guitar Tabs
song title    band name

Join Us Today!

Don't strum alone...
be a part of the largest online Christian music community. Browse thousands of guitar tabs and chat w/ musicians like yourself.


It's Free!

This tab has been rated a 3.43 out of 5 for accuracy. (7 votes)Sorry, but you must be logged in to rate this tab.
Click here to log-in, or you can click here to register.
(Registration is free)

All songs owned by corresponding publishing company. If you make copies of any song on this website, be sure to report your usage to CCLI.
Submitted by: _P2_

Dare You to Move
Switchfoot- The Beautiful Letdown

A lot of the tabs are
close, but if you listen
to the song closely there
is a change in the bass line
in the intro and the song isn't as complicated
as people make it....I think this is pretty good 
but I'm not sure....
listen to the song for strums and chord transitions

standard tuning
intro x2
e-777-000-444-0000000-000000000000000-777-000-444-0000000-000000000-22222222-00
b-000-000-000-0000000-000000000000000-000-000-000-0000000-000000000-00000000-00
g-666-666-444-4444444-222222222222222-666-666-444-4444444-222222222-22222222-22
d-x---------------------------------------------------------------------------x
a-x---------------------------------------------------------------------------x
e-x---------------------------------------------------------------------------x


chorus

e-0000-0000-00000000-0000-0000-0000-0000
b-0000-0000-00000000-0000-0000-0000-0000
g-9999-8888-66666666-9999-8888-6666-8888
d-9999-9999-77777777-9999-9999-7777-9999
a-7777-9999-77777777-7777-9999-7777-9999
e-0000-7777-55555555-0000-7777-5555-7777

intro again

verse

e---------------------------------------------------------------------
b---------------------------------------------------------------------
g-4/6-4/6-6/4/222222-4/6-4/6-6/4/222222333333/666666-4/6-4/6-6/4/22222
d-4/6-4/6-6/4/222222-4/6-4/6-6/4/222222444444/777777-4/6-4/6-6/4/22222
a-2/4-2/4-4/2--------2/4-2/4-4/2-------444444/777777-2/4-2/4-4/2------
e--------------------------------------111111/555555------------------

e-----------------
b-----------------
g-333333/888888---   (back to chorus)
d-444444/999999---
a-444444/999999---
e-222222/777777---

break down

e-----------------------------------------------------  
b-----------------------------------------------------
g-99999999-666666-99999999-666666-99999999-666666-3/8-       gtr solo
d-99999999-777777-99999999-777777-99999999-777777-4/9-    
a-77777777-777777-77777777-777777-77777777-777777-4/9-
e----------555555----------555555----------555555-1/7-

chorus


the song goes as follows

intro
chorus
intro
verse
chorus
break down
gtr solo
chorus


for ?'s and comments u can email me at RedNitro1@msn.com

Comments about this tab

acethrowbot - 2004-08-29

pretty good! not perfect, but this is quite good. i think you're right about the base line changing in the intro, which is something most of the other tabs don't have.


ascension - 2004-09-07

awesome man!!


stupidchi - 2004-09-30

i havnt tried playin this song yet but compared to other tabs this seem pretty ok and most people dont understand wat part is played next soo its good u hav the parts in order at the end it helped heaps of people out!


jsoccer - 2004-12-09

the chorus and the break down is the only thing that is correct. good try


jambaman - 2005-02-02

the chorus is right but the intro/verse goes like this:

e-7-7-7-0-0-0-0-0-0-0-0-0-0-0-0-0-0-0-0
g-0-0-0-0-0-0-9-9-9-0-0-0-0-0-0-0-0-0-0
b-9-9-9-9-9-9-9-9-9-9-9-9-9-9-9-9-9-9-9
d-----------------------------7-7-7-7-7


Retrnfrmfallen - 2005-03-01

the root note does change i think its like this though
e--0--0--0--0--0---------------------
b--12-0--9--0--0---------------------
g--9--9--9--9--9---------------------
d--11-9--9--9--7---------------------
a------------------------------------
E------------------------------------

i didnt do the rhythms cause im lazy but those r the chords


guitarplayer67 - 2005-06-25

heyn rentrnfallen dude u r correct. that is the same way i play it


Add a comment/correction

Complimentary Christian Ringtones
Dadamobile and CGR have teamed up to bring your favorite Christian artists right to your phone. Sign up today and get 10 complementary ringtones!
Tab Country
Did you know CGR has a sister site w/ country guitar tabs? Well we do! Its called Tab Country. It has a great archive with a lot of country tabs.
Rockin Tabs
Are you looking for a site that has rock guitar tabs? Then Rockintabs.com is the place for you. It is a budding site with many rock guitar tabs. Submit your tab today.
Tab Gallery
Tab Gallery has a compilation of christian, rock, and country tabs all in one place. Come visit us.