Guitar Tabs
song title    band name

Join Us Today!

Don't strum alone...
be a part of the largest online Christian music community. Browse thousands of guitar tabs and chat w/ musicians like yourself.


It's Free!

Audio Adrenaline - Big House

This tab has been rated a 4.00 out of 5 for accuracy. (4 votes)Sorry, but you must be logged in to rate this tab.
Click here to log-in, or you can click here to register.
(Registration is free)

All songs owned by corresponding publishing company. If you make copies of any song on this website, be sure to report your usage to CCLI.
Big House
Words and Music by Audio Adrenaline
copyright 1995 UP IN THE MIX MUSIC
Admin. by EMI CHRISTIAN MUSIC PUBLISHING

Here is the solo played between the first Chorus and Second verse.
Standard Tuning.


e---5--7-----------------------------------
b---5--7---5-------------------------------
g----------5h6--------------9s11---9-------
d--------------------7------9s11---9---9s11
a--------------------------------------9s11
e------------------9---9p7-----------------


e---5--7-----------------------------------
b---5--7---5-------------------------------
g----------5h6--------------9s11---9-------
d--------------------7------9s11---9-------
a------------------------------------------
e------------------9---9p7-----------------



Here is the ending lick. I looked at the others and they don't seem right
so here is the right one.

e---12-12------------------------------
b---12-14------------------------------
g---------14-s11--9---------9----------
d---------14-s11--9---9s11--9----------
a---------------------9s11-----11--s4--
e-----------------------------------5--

If you find anything wrong or a comment please e-mail me
zacharylycans@hotmail.com

Comments about this tab

Fatherladd - 2005-07-26

You don't have the solo right at all this is it:

e|-3s5-7--------------|------------|-3s5-7--------------|-----|
B|-3s5-7-5------------|-5---x------|-3s5-7-5------------|-5---|
G|-------5h6----------|-5h6-7------|-------5h6----------|-5h6-|
D|--------------------|-------6h7--|--------------------|-----|
A|------------2h4-7-0-|------------|------------2h4-7-0-|-----|
E|--------------------|------------|--------------------|-----|


Add a comment/correction

Complimentary Christian Ringtones
Dadamobile and CGR have teamed up to bring your favorite Christian artists right to your phone. Sign up today and get 10 complementary ringtones!
Tab Country
Did you know CGR has a sister site w/ country guitar tabs? Well we do! Its called Tab Country. It has a great archive with a lot of country tabs.
Rockin Tabs
Are you looking for a site that has rock guitar tabs? Then Rockintabs.com is the place for you. It is a budding site with many rock guitar tabs. Submit your tab today.
Tab Gallery
Tab Gallery has a compilation of christian, rock, and country tabs all in one place. Come visit us.