Guitar Tabs
song title    band name

Join Us Today!

Don't strum alone...
be a part of the largest online Christian music community. Browse thousands of guitar tabs and chat w/ musicians like yourself.


It's Free!

This tab has been rated a 2.00 out of 5 for accuracy. (2 votes)Sorry, but you must be logged in to rate this tab.
Click here to log-in, or you can click here to register.
(Registration is free)

All songs owned by corresponding publishing company. If you make copies of any song on this website, be sure to report your usage to CCLI.
Submitted by: ascension

--------------------------------------------------------------------------------
                          Hawk Nelson - Someone Else Before
--------------------------------------------------------------------------------

Alright...whats up guys?!  This song is really easy...i hope everyone enjoys it!

Tabbed by: Ascension
Written by: Hawk Nelson
Copyright 2004
Tooth and Nail Records

Drop D Tuning

Intro (Medium Distortion)The following are elevens and tens. Not ones and zero.

E/------------------------------------------------------------------------------
B/------------------------------------------------------------------------------
G/------------------------------------------------------------------------------
D/-11111111-6666-8888-4444-11111111-10101010-88-4--0----------------------------
A/-11111111-6666-8888-4444-11111111-10101010-88-4--0----------------------------
D/-11111111-6666-8888-4444-11111111-10101010-88-4--0----------------------------

Verse 1 (Medium Distortion)                        If this part isn't 100% 
                                                 correct it is a variation of it.
E/----------------------------------------------------99----99----99--9 2x (just
B/---------------------------------------------------9--99-9--99-9--99-  the 99 
G/----------66---66---66---66------------------------------------------  part)
D/-0-----------------------------1111--1010--88-4----------------------
A/-0-----------------------------1111--1010--88-4----------------------
D/-0-----------------------------1111--1010--88-4----------------------
         

Chorus 1 (Medium Distortion)

E/----------------------------------------------------------------------------
B/----------------------------------------------------------------------------
G/----------------------------------------------------------------------------
D/-777-11--6--8--4--11--10--8--4--11-1111-6-66-8-88-4-44-11-1111-10-1010-88--4
A/-777-11--6--8--4--11--10--8--4--11-1111-6-66-8-88-4-44-11-1111-10-1010-88--4
D/-777-11--6--8--4--11--10--8--4--11-1111-6-66-8-88-4-44-11-1111-10-1010-88--4

Preverse 2 (Medium Distortion)

E/-----------------------------------------
B/-----------------------------------------
G/-----------------------------------------
D/-xx-11-xx-6-xx-4-xx-8-xx-11-xx-6-xx-8--44
A/-xx-11-xx-6-xx-4-xx-8-xx-11-xx-6-xx-8--44
D/-xx-11-xx-6-xx-4-xx-8-xx-11-xx-6-xx-8--44

Verse 2 (Medium Distortion)                                           11
                                                                      11
E/-----------------------------------------------------During verse 2 11 is 
B/-----------------------------------------------------is repeated until all in
G/-----------------------------------------------------black is sang. Then 15
D/-1111-11-66-6-44-4-88/66-1111-11-1010-10-88-8-7-7-11 15       is         15
A/-1111----66---44---88/66-1111----1010----88---7-7-11 15 

Comments about this tab

ascension - 2004-08-26

I dunno why my full one isnt being posted...haha..must be some glitch...well the full one posted on my other one under corrections will have to do


Add a comment/correction

Complimentary Christian Ringtones
Dadamobile and CGR have teamed up to bring your favorite Christian artists right to your phone. Sign up today and get 10 complementary ringtones!
Tab Country
Did you know CGR has a sister site w/ country guitar tabs? Well we do! Its called Tab Country. It has a great archive with a lot of country tabs.
Rockin Tabs
Are you looking for a site that has rock guitar tabs? Then Rockintabs.com is the place for you. It is a budding site with many rock guitar tabs. Submit your tab today.
Tab Gallery
Tab Gallery has a compilation of christian, rock, and country tabs all in one place. Come visit us.