Guitar Tabs
song title    band name

Join Us Today!

Don't strum alone...
be a part of the largest online Christian music community. Browse thousands of guitar tabs and chat w/ musicians like yourself.


It's Free!

This tab has been rated a 4.33 out of 5 for accuracy. (3 votes)Sorry, but you must be logged in to rate this tab.
Click here to log-in, or you can click here to register.
(Registration is free)

All songs owned by corresponding publishing company. If you make copies of any song on this website, be sure to report your usage to CCLI.
Submitted by: Shaneathin86

Song: Sioux Lane Spirits
Band: Project 86
Album: Songs to burn your bridges by
Tooth and Nail

Drop D (DADGBE)

Intro
G----------5/7----------5/7--------------5/7---------------------------------
D--0-8-7-0-5/7-0--8-7-0-5/7-5h7--0-8-7-0-5/7-0-2-3-5-3-------888888887777777-
A--0-8-7-0-3/5-0--8-7-0-3/5-5h7--0-8-7-0-3/5-0-2-3-5-3-------888888887777777-
D--0-8-7-0-----0--8-7-0-----5h7--0-8-7-0-----0-2-3-5-3-(x2)--888888887777777-

Verse
D--000-222-333-222-3232--88888888777777--------------------------------------
A--000-222-333-222-3232--88888888777777--------------------------------------
D--000-222-333-222-3232--88888888777777--------------------------------------
PM......................................

Chorus
G----------5/7----------5/7--------------5/7---------------------------------
D--0-8-7-0-5/7-0--8-7-0-5/7-5h7--0-8-7-0-5/7-0-6-7-8-7-----------------------
A--0-8-7-0-3/5-0--8-7-0-3/5-5h7--0-8-7-0-3/5-0-6-7-8-7-----------------------
D--0-8-7-0-----0--8-7-0-----5h7--0-8-7-0-----0-6-7-8-7-----------------------

G----------5/7----------5/7--------------5/7---------------------------------
D--0-8-7-0-5/7-0--8-7-0-5/7-5h7--0-8-7-0-5/7-0-2-3-5-3-------888888887777777-
A--0-8-7-0-3/5-0--8-7-0-3/5-5h7--0-8-7-0-3/5-0-2-3-5-3-------888888887777777-
D--0-8-7-0-----0--8-7-0-----5h7--0-8-7-0-----0-2-3-5-3--(x2)-888888887777777-

Bridge,guitar 1
D---8888-8888-888-7777-7777-777---8888-8888-888-7777-7777-777
A---8888-8888-888-7777-7777-777---8888-8888-888-7777-7777-777
D---8888-8888-888-7777-7777-777---8888-8888-888-7777-7777-777

Bridge,guitar 2
G---11-12--14-12-11-12-11-9-11-12-11-9---------------------
then guitar 2 does some cool high stuff that i can't quite figure out any help 
here would be appreciated.

Song
Intro x1
Verse x4
Chorus x1
Verse x4
Chorus x1
Bridge,guitar 1 x.5
Bridge,guitar 1&2 x2
Bridge guitar 1&theunkownguitar2part x2
Verse x4
Chorus x2
Bridge,guitar 1 x1
end on a D

Well thats all she wrote, do notice how the intro and the chorus are different 
I didn't notice myself til i started tabbing just now.also theres some chords 
in the verse that aren't palm muted but ur smart u can find 'em. have fun. 
Question, comments, editorials, and other nonsense to Shaneathin86@hotmail.com

Comments about this tab

Shaneathin86 - 2004-08-19

i messed up on the verse. the third chord is on the 5th fret not the 3rd. so uhh rock on!


Shaneathin86 - 2004-09-09

wow i really chunked up the verse.. let me just retab the whole thing
C#--000--222--555--33-23232--88888888777777
G#--000--222--555--33-23232--88888888777777
C#--000--222--555--33-23232--88888888777777
PM.........................................


ariaman - 2004-11-04

i think the solo goes like this:

B-----10----------------------10-10-13-10-13-
G--10----several times--14-12----------------

something like that...


Add a comment/correction

Complimentary Christian Ringtones
Dadamobile and CGR have teamed up to bring your favorite Christian artists right to your phone. Sign up today and get 10 complementary ringtones!
Tab Country
Did you know CGR has a sister site w/ country guitar tabs? Well we do! Its called Tab Country. It has a great archive with a lot of country tabs.
Rockin Tabs
Are you looking for a site that has rock guitar tabs? Then Rockintabs.com is the place for you. It is a budding site with many rock guitar tabs. Submit your tab today.
Tab Gallery
Tab Gallery has a compilation of christian, rock, and country tabs all in one place. Come visit us.