Guitar Tabs
song title    band name

Join Us Today!

Don't strum alone...
be a part of the largest online Christian music community. Browse thousands of guitar tabs and chat w/ musicians like yourself.


It's Free!

This tab has been rated a 4.50 out of 5 for accuracy. (2 votes)Sorry, but you must be logged in to rate this tab.
Click here to log-in, or you can click here to register.
(Registration is free)

All songs owned by corresponding publishing company. If you make copies of any song on this website, be sure to report your usage to CCLI.
Submitted by: Shaneathin86

Song: Safe Haven
Band: Project 86
Album: Songs to burn your bridges by
Tooth and Nail

There were a few tabs on this song but they didn't seem that accurate to me.
and since i knew how to play this song i felt i should tab it myself.

drop c# tuning (C#G#C#F#A#D#)

Intro/verse (rhythm not tabbe, just chord progression)

C#--12---8---7---10---12---8---7---3------------------------------------
G#--12---8---7---10---12---8---7---3------------------------------------
C#--12---8---7---10---12---8---7---3------------------------------------

pre-chorus

C#---12-12--10-10-12-12--10-10--12-12--10-10--12--19--15--17--14--------
G#---12-12--10-10-12-12--10-10--12-12--10-10--12--19--15--17--14--------
C#---12-12--10-10-12-12--10-10--12-12--10-10--12--19--15--17--14--------

chorus
F#--------777777-------101010121212-------7777777-----------------------
C#--0-0-0-777777-3-3-3-101010121212-0-0-0-7777777-8-8-8-10-10-10-10-----
G#--0-0-0-555555-3-3-3-8-8-8-101010-0-0-0-5555555-8-8-8-10-10-10-10-----
C#--0-0-0--------3-3-3--------------0-0-0---------8-8-8-10-10-10-10-----

Bridge,guitar 1
A#--6655-6655-65-6655-6655-65--6655-6655-65-6655-6655-6----------------
F#--7777-7777-77-7777-7777-77--7777-7777-77-7777-7777-7----------------

Bridge,guitar 2
C#--12---8---10---5-------12---8---5---10-------------------------------
G#--12---8---10---5-------12---8---5---10-------------------------------
C#--12---8---10---5-------12---8---5---10-------------------------------

Fill
C#-000-0-000-0-000-0-000-0----------------------------------------------
G#-000-0-000-0-000-0-000-0----------------------------------------------
C#-000-0-000-0-000-0-000-0----------------------------------------------

Song
Intro/verse x4
Pre-chorus x1
Chorus x1
Verse x2
Pre-Chorus x1
Chorus x2
Bridge(guitar 1) x1
Bridge(guitar 1&2) x2
Fill x2
Pre-chorus&Fill x2
Chorus x2
Bridge 1&2 x1
Fill x1

Theres the song as i see it. hope its good =S. i like it. Question, comments, 
editorials, and other nonsense to Shaneathin86@Hotmail.com

Comments about this tab

Shaneathin86 - 2004-08-19

This tab has been up for like a day and i already have a correction. the last chord on the prechorus is on the 12th fret not the afore mentioned 14th. that is all.


ariaman - 2004-08-24

good job! somebody finally got it right(or at least pretty close)
i think they definitely use different chords on the bridge, though.
Actually, maybe not different chords, but the same chords in another spot.
Try it out...


Shaneathin86 - 2004-11-02

i just saw these fellas in concert which was very cool
i suggest checkin them out, and he plays the verse
differently then i thought. so here's what i'm guessin

F#--77-------55--77---------
C#--77-77-77-55--77-77-77-33
G#--55-55-55-33--55-55-55-33
C#-----88-77--------88-77-33

couldn't tell but thats what it looked like and it
sounds ok to me
-Shaner


Shaneathin86 - 2005-10-12

last chord in pre-chorus is at 12 not at 14


Add a comment/correction

Complimentary Christian Ringtones
Dadamobile and CGR have teamed up to bring your favorite Christian artists right to your phone. Sign up today and get 10 complementary ringtones!
Tab Country
Did you know CGR has a sister site w/ country guitar tabs? Well we do! Its called Tab Country. It has a great archive with a lot of country tabs.
Rockin Tabs
Are you looking for a site that has rock guitar tabs? Then Rockintabs.com is the place for you. It is a budding site with many rock guitar tabs. Submit your tab today.
Tab Gallery
Tab Gallery has a compilation of christian, rock, and country tabs all in one place. Come visit us.