Guitar Tabs
song title    band name

Join Us Today!

Don't strum alone...
be a part of the largest online Christian music community. Browse thousands of guitar tabs and chat w/ musicians like yourself.


It's Free!

This tab has been rated a 5.00 out of 5 for accuracy. (5 votes)Sorry, but you must be logged in to rate this tab.
Click here to log-in, or you can click here to register.
(Registration is free)

All songs owned by corresponding publishing company. If you make copies of any song on this website, be sure to report your usage to CCLI.
Song: Collide
Artist: Fono    
Album: Goesaroundcomesaround
Copyright info: All songs by Del Currie copyright 1999 Del Currie Music.
KMG/Big Deal records
Tabbed By: Darrick Hurst (mjhurst@flash.net)

first off, Tune all strings down 1/2 a step, then Drop the low E string
another Step

---Eb---
---Bb---
---Gb---
---Db---
---Ab---
---Db---

Intro:
-----------------------------------------------------------------------
----------3----------------3---------------3---------------3-----------
------2------2---------2------2--------2------2--------2-------2-------
---0----------------------------------------------0--------------------
------------------1----------------------------------------------------
------------------------------------3----------------------------------

-----------------------------------------------------------------------
----------3----------------3---------------3---------------3-----------
------2------2---------2------2--------2------2--------2-------2-------
---0----------------------------------------------0--------------------
------------------1----------------------------------------------------
------------------------------------3----------------------------------

-----------------------------------------------------------------------
----------3----------------3---------------3---------------3-----------
------2------2---------2------2--------2------2--------2-------2-------
---0----------------------------------------------0--------------------
------------------1----------------------------------------------------
------------------------------------3----------------------------------


-----------------------------------------------------------------------
---------3-----------3----------------3--------------------------------
-----2------------2---------------2------2--------2----2---------------
---------------0----------------------------------2----2---------------
------------1-------------------------------------0----0---------------
---0---------------------3----3----------------------------------------

Gtr 1
----------------------------------------------------
----------------------------------------------------
---7--7-----3--3--3---3--3--3---3--3--/--5--5-------  Repeat 3x
---7--7-----3--3--3---3--3--3---3--3--/--5--5-------
---5--5-----1--1--1---1--1--1---1--1--/--3--3--0----
---0--0---------------------------------------------

Gtr 2
-----------------------------------------------------------------------
---6--6-----6--6--6---6--6--6---6--6--/--8--8----10--10-----10--10--10-
---7--7-----7--7--7---7--7--7---7--7--/--9--9----10--10-----10--10--10-
-----------------------------------------x--x-----x---x------x---x---x-
---8--8-----8--8--8---8--8--8---8--8--/-10--10---12--12-----12--12--12-
-----------------------------------------------------------------------

-------------------------------------------
---10--10--10-----10--10--\----8---\---8---
---10--10--10-----10--10--\----9---\---7---  Repeat about 2x
----x---x---x------x---x-------x-----------
---12--12--12-----12--12--\---10---\---9---
-------------------------------------------

Verse:
--------------------------------------------------------
----------3--------------------------------------------- Repeat 3x
-------------5-------5----------5---------------5-------
-------3----------5-----3----0-----0--------5------5----
----------------------------------------3---------------
----0---------------------------------------------------


Pre Chorus:
-----------------------------------------------------------------------
-----------------------------------------------------------------------
---2---2-------------2---2--------------2---2-------------2---2---2---2
---2---2-------------2---2--------------2---2-------------2---2---2---2
---0---0-------------0---0--------------0---0-------------0---0---0---0
-----------------------------------------------------------------------

Chorus:
-----------------------------------------------------------
----------------------------------------------------------- Repeat
----7---7---7---------3---3---3-----------------------2----  3x
----7---7---7---------3---3---3---------3--3--3-------2----
----5---5---5----0----1---1---1----0----3--3--3-------0----
----0---0---0---------------------------3--3--3---0---2----



Then back to the Verse, Pre Chorus, then Chorus



at about 2:12 you'll run into this Solo:
-----------------------------------------------------------------------
--6--------------8-----10-------------------11-------------13----------
--7--------------9-----10-------------------12-------------14----------
--x--------------x------x--------------------x--------------x----------
--8-------------10-----12-------------------13-------------15----------
-----------------------------------------------------------------------

Note: to make this solo sound right, Strum up and down extremly fast
(tremelo picking)and slowly move up and down on a wah-wah pedal (with
Distortion of course)

Then back to this
-----------------------------------------------------------------------
-----------------------------------------------------------------------
---2---2-------------2---2--------------2---2-------------2---2---2---2
---2---2-------------2---2--------------2---2-------------2---2---2---2
---0---0-------------0---0--------------0---0-------------0---0---0---0
-----------------------------------------------------------------------

Then Del sings the Chorus while the intro riff is played in the background:
-----------------------------------------------------------------------
---------3--------------3----------------3---------------3-------------
------2----2--------2------2---------2------2--------2------2----------
---0-------------------------------------------------------------------
----------------1--------------------------------0---------------------
--------------------------------3--------------------------------------
Repeat twice before this part:

-----------------------------------------------------------------------
---------3-------------3---------------3-------------------------------
------2----2-------2------2--------2------2----------------------------
---0-------------------------------------------------------------------
---------------1-------------------------------0-----------------------
------------------------------3----------------------------------------
Then there's a short pause before the chorus again

-----------------------------------------------------------
----------------------------------------------------------- 
----7---7---7---------3---3---3-----------------------2---- 
----7---7---7---------3---3---3---------3--3--3-------2----
----5---5---5----0----1---1---1----0----3--3--3-------0----
----0---0---0---------------------------3--3--3---0---2----

At the end of the song, Gtr 1 plays 
these chords again...
----------------------------------------------------
----------------------------------------------------
---7--7-----3--3--3---3--3--3---3--3--/--5--5-------  
---7--7-----3--3--3---3--3--3---3--3--/--5--5-------
---5--5-----1--1--1---1--1--1---1--1--/--3--3--0----
---0--0---------------------------------------------

...And Gtr 2 plays this lead over it:
-------------------------------
-------10-H-11-P-10------------  Repeat 4 more Times
--------------------10---------
-------------------------------
-------------------------------
-------------------------------

Then slide down from the last ten and play:

-------------------------
---------5-H-6-P-5-------
--------------------5----
-------------------------
-------------------------
-------------------------
and repeat that 4 more times.

At the very end of the song you can hear the lead start working its way
up the G string and then slide down and off.


That's basically it. Fono is from england and is sorta new to the
United States. After hearing one of their songs on the radio, I bought
the CD and Fono has quickly become one of my favorite groups. Drop me
a line if you need help or just want to say hello 
or whatever.            --Darrick

http://www.fono.net

Comments about this tab

TweezyGuy52 - 2006-07-24

Looks good love this song


Add a comment/correction

Complimentary Christian Ringtones
Dadamobile and CGR have teamed up to bring your favorite Christian artists right to your phone. Sign up today and get 10 complementary ringtones!
Tab Country
Did you know CGR has a sister site w/ country guitar tabs? Well we do! Its called Tab Country. It has a great archive with a lot of country tabs.
Rockin Tabs
Are you looking for a site that has rock guitar tabs? Then Rockintabs.com is the place for you. It is a budding site with many rock guitar tabs. Submit your tab today.
Tab Gallery
Tab Gallery has a compilation of christian, rock, and country tabs all in one place. Come visit us.