Guitar Tabs
song title    band name

Join Us Today!

Don't strum alone...
be a part of the largest online Christian music community. Browse thousands of guitar tabs and chat w/ musicians like yourself.


It's Free!

This tab has been rated a 4.43 out of 5 for accuracy. (7 votes)Sorry, but you must be logged in to rate this tab.
Click here to log-in, or you can click here to register.
(Registration is free)

All songs owned by corresponding publishing company. If you make copies of any song on this website, be sure to report your usage to CCLI.
Submitted by: SSj Guitarist

Song: I Climb
Artist: Thousand Foot Krutch
Tabbed By: SSj & Vincent508

!! Drop D !!

()= Optional
*= mute strings

Intro/Verse
E------------------------------------------------
B------------------------------------------------
G–-(12)----------15-14-15-12-10-12-8-7/8\7-------
D------------------------------------------------
A------------------------------------------------
D------------------------------------------------

Pre-Chorus
E----------------------------------------------------
B----------------------------------------------------
G----------------------------------------------------
D–-1–1–*-1-1-*-1-1-*-1-1-8p7--5-5-*-5-5-*-5-5-*-5\3--
A–-1–1–*-1-1-*-1-1-*-1-1-8p7--5-5-*-5-5-*-5-5-*-5\3--
D–-1–1–*-1-1-*-1-1-*-1-1-8p7--5-5-*-5-5-*-5-5-*-5\3--

E--------------------------------------------------------
B--------------------------------------------------------
G--------------------------------------------------------
D–-1-1-*-1-1-*-1-1-*-1-1-8p7–-3-3-*-3-3-*-3-3-*-3-3XXXX--
A–-1-1-*-1-1-*-1-1-*-1-1-8p7--3-3-*-3-3-*-3-3-*-3-3XXXX--
D–-1-1-*-1-1-*-1-1-*-1-1-8p7--3-3-*-3-3-*-3-3-*-3-3XXXX–-

Pre-Chorus_2
E----------------------------------------------------
B----------------------------------------------------
G----------------------------------------------------
D–-1–1–*-1-1-*-1-1-*-1-1-8-7-9--3---5-5-*-5-5-*-5\3--
A–-1–1–*-1-1-*-1-1-*-1-1-8-7-9--3---5-5-*-5-5-*-5\3--
D–-1–1–*-1-1-*-1-1-*-1-1-8-7-9--3---5-5-*-5-5-*-5\3--

E--------------------------------------------------------
B--------------------------------------------------------
G--------------------------------------------------------
D–-1-1-*-1-1-*-1-1-*-1-1-8p7–-3-3-*-3-3-*-3-3-*-3-3XXXX--
A–-1-1-*-1-1-*-1-1-*-1-1-8p7--3-3-*-3-3-*-3-3-*-3-3XXXX--
D–-1-1-*-1-1-*-1-1-*-1-1-8p7--3-3-*-3-3-*-3-3-*-3-3XXXX–-

Chorus
E----------------------------------------------------
B----------------------------------------------------
G----------------------------------------------------
D–-5--5--5--5--0--0--0--0--6--6--6--6--1--1--1--1/3–-
A–-5--5--5—-5—-0—-0--0--0--6--6--6--6--1--1--1--1/3--
D–-5--5--5--5--0--0--0--0--6--6--6--6--1--1--1--1/3–-

E---------------------------------------------
B---------------------------------------------
G---------------------------------------------
D--5--5--5--5--0--0--0--0--6-6--6--6XXX–6–-6--
A--5--5--5--5--0--0--0--0--6-6--6--6XXX-6--6--
D–-5–-5--5--5--0--0--0--0--6-6--6--6XXX-6--6--
				   |--Listen to Cd to figure out exactly how it goes
					This is just for show, lol.–-|

Bridge
(Note: I’m not 100% sure that this part is correct so if you fix it, please put it in the correction box)
E-------------------------------------------------------------------------
B-------------------------------------------------------------------------
G–-777777777777-888888888888-101010101010101010101010-12-12–-12-12-15/12--
D–-777777777777-888888888888-101010101010101010101010-12-12–-12-12-15/12--
A–-555555555555-666666666666-8-8-8-8-8-8-8-8-8-8-8-8--10-10–-10-10–13/10--
D-------------------------------------------------------------------------

E---------------------------------------------------------------
B---------------------------------------------------------------
G--777777777777-888888888888-555555555555-7--7--7--7--8--------- There’s a bit 
D--777777777777-888888888888-555555555555-7--7--7--7--8--------- of scratchin’
A--555555555555-666666666666-333333333333-5--5--5--5—–6--------- but you can
D--------------------------------------------------------------- figure it out


Outro
E-----------------------------------------------------------
B-----------------------------------------------------------
G-----------------------------------------------------------
D–-5-----0-----6----1----3------5-----0----6-6-6--6XXX–6-6--
A–-5-----0-----6----1----3------5-----0----6-6-6--6XXX–6-6--
D–-5-----0-----6----1----3------5-----0----6-6-6--6XXX-6-6--

Order:
Intro x2
Pre Chorus 
Chorus x2
Intro x3
Pre Chorus_2
Chorus x2
Bridge
Chorus x2
Outro x2

There you have it.

SSj

Comments about this tab

iamawesome61604 - 2004-08-29

I haven't checked ou the bridge yet, but so far all I have found wrong with it is, on the Pre-Chorus_2 it is: 1-1-*-1-1-*-1-1-8-7-9--3 not 1-1-*-1-1-*-1-1-*-1-1-8-7-9--3 Other than that, it is pretty accurate so far. I will check out the bridge and let you know later if it has any errs.


dtaylorl - 2005-06-05

Chorus Correction
E----------------------------------------------------
B----------------------------------------------------
G----------------------------------------------------
D–-5--5--5--5--0--0--0--0--6--6--6--6--1--1--1--1–-
A–-5--5--5—-5—-0—-0--0--0--6--6--6--6--1--1--1--1--
D–-5--5--5--5--0--0--0--0--6--6--6--6--1--1--1--1–-

E---------------------------------------------
B---------------------------------------------
G---------------------------------------------
D--5--5--5--5--0--0--0--0--6-6--1/3-1/3
A--5--5--5--5--0--0--0--0--6-6--1/3-1/3
D–-5–-5--5--5--0--0--0--0--6-6--1/3-1/3

Or something close to that. I'm also not sure about your outro...
But the rest of the song is awsome (I'm a huge SsJ fan, due to all your great TFK tabs)!


titus13 - 2005-09-02

Hey guys, couple of corrections. Firstly, The pre-chorus two dosen't do the pull off onto the 7th on the second part of it. Secondly, the bridge chords are the following:

D 0--------1------3-------5-------8-7---0------1------3-----0------1
A 0--------1------3-------5-------8-7---0------1------3-----0------1
D 0--------1------3-------5-------8-7---0------1------3-----0------1

There ya go and have fun, God bless!


Dani_Boy - 2006-03-27

You missed out the Rhythm Guitar in the Intro/Verse section. I think it uses a phaser effect or something like that. This song has two guitars by the way, maybe you didn't notice that.


Dani_Boy - 2006-03-27

Hey Titus, your bridge chords work fine and are fun to play with,
but the're not played in the song. They are an octave low compared
to what's played. By the way, they don't play chords in the bridge,
they play octaves with the Lead Guitar wich has a brighter sound.
I'm not sure about the rhythm yet, except for the marked part,
but here's the octaves:

G|--7-------8-------10------12-12---12-12---15\--|
D|--x-------x-------x-------x--x----x--x----x-\--|
A|--5-------6-------8-------10-10---10-10---13\--|
D|-----------------------------------------------|
|--------------------|

G|--7-------8-------5-------7-------8------------|
D|--x-------x-------x-------x-------x------------|
A|--5-------6-------3-------5-------6------------|
D|-----------------------------------------------|

I'm sure they use these octaves, but I think they might
be messing around with a few of them. The octaves with
the darker tone on the sixth fret sounds like he's adding
adding something extra. (I'm not counting the final octave)
Anyways, tell me if it sounds relevant or else tell me
why I'm thinking wrongly. Bless!


Add a comment/correction

Complimentary Christian Ringtones
Dadamobile and CGR have teamed up to bring your favorite Christian artists right to your phone. Sign up today and get 10 complementary ringtones!
Tab Country
Did you know CGR has a sister site w/ country guitar tabs? Well we do! Its called Tab Country. It has a great archive with a lot of country tabs.
Rockin Tabs
Are you looking for a site that has rock guitar tabs? Then Rockintabs.com is the place for you. It is a budding site with many rock guitar tabs. Submit your tab today.
Tab Gallery
Tab Gallery has a compilation of christian, rock, and country tabs all in one place. Come visit us.