Guitar Tabs
song title    band name

Join Us Today!

Don't strum alone...
be a part of the largest online Christian music community. Browse thousands of guitar tabs and chat w/ musicians like yourself.


It's Free!

This tab has been rated a 5.00 out of 5 for accuracy. (3 votes)Sorry, but you must be logged in to rate this tab.
Click here to log-in, or you can click here to register.
(Registration is free)

All songs owned by corresponding publishing company. If you make copies of any song on this website, be sure to report your usage to CCLI.
Submitted by: IncuThrice07

-------------------------------------------------------------------------------
                     KING (INTRO) - Tree63
-------------------------------------------------------------------------------

By:  Gary(garyhale@spu.edu)

CAPO 1ST FRET!!!

>   - strumming not defined

GUITAR 1'S PARTS:
-----------------
Intro:  
e|-----10------10------9------10-----10----------10------10------9------10---|
B|--10------10------10-----10-----10----10----10------10------10-----10------|
G|7-------7-------7------7------7--------------------------------------------|
D|------------------------------------------9-------9-------9------9---------|
A|---------------------------------------------------------------------------|
E|---------------------------------------------------------------------------|

Intro Cont'd:
e|-----10----------10------10------9------10------10----------10------10-----|
B|--10----10----10------10------10-----10------10----10----10------10------10|
G|-------------------------------------------------------0-------0-------0---|
D|9-----------7-------7-------7------7-------7-------------------------------|
A|---------------------------------------------------------------------------|
E|---------------------------------------------------------------------------|

Intro Cont'd:
e|-9------10------10-----|
B|-----10------10----10--|
G|---0-------0-----------|
D|-----------------------|
A|-----------------------|
E|-----------------------|

Intro Cont'd:  (Full band comes in)  (3x)    Play this 4th time:
e|------------------------------------------|--------------------------------|
B|------------------------------------------|--------------------------------|
G|--12-12-12-12-11-11-11-11-9-9-9-9-7-7-7-7-|----14>-------------------------|
D|---x--x--x--x--x--x--x--x-x-x-x-x-x-x-x-x-|-----x--------------------------|
A|--10-10-10-10--9--9--9--9-7-7-7-7-5-5-5-5-|----12>-------------------------|
E|------------------------------------------|--------------------------------|

GUITAR 2'S PARTS:
-----------------
Chords Used:
   D5   B5   A5   G5   E5  D/F#
e|---------------------------------------------------------------------------|
B|---------------------------------------------------------------------------|
G|-7----4----2---------------------------------------------------------------|
D|-7----4----2----5----2-----------------------------------------------------|
A|-5----2----0----5----2----5------------------------------------------------|
E|----------------3----0----2------------------------------------------------|

Intro:  D5 - B5 - A5 - G5

If someone would like the rest of this song, give me an e-mail and I'll hook
it up.  Visit http://www.geocities.com/ggtabs07 for more tabs.
===============================================================================

Comments about this tab

JohnM - 2005-07-26

Tree63 plays it in E, tuned down half step, but this works too. Sounds the same either way.


heyhomedawg - 2005-07-29

i think tree63 does it in Eb.....try it without the capo and move all the tabs up there^up a fret....7-8 and so on...ya know ?


neverforsaken40 - 2005-08-07

Yeah this sounds good. Can somebody PLEASE do the solo?


HammerSuit - 2006-07-17

I think that the beginning intro is more like this:

Intro:

Gtr 1:

e|-----10------10------9------10------10----
B|--10------10------10---10--------10----10-
G|7-------7-------7---------7----7----------
D|------------------------------------------
A|------------------------------------------
E|------------------------------------------

e|-----10------10------9------10------10----
B|--10------10------10---10--------10----10-
G|------------------------------------------
D|9-------9-------9---------9----9----------
A|------------------------------------------
E|------------------------------------------

e|-----10------10------9----9-10------10----
B|--10------10------10---10--------10----10-
G|------------------------------------------
D|7-------7-------7--------------7----------
A|------------------------------------------
E|------------------------------------------

e|-----10------10------9----9-10------10----
B|--10------10------10---10--------10----10-
G|0-------0-------0--------------0----------
D|------------------------------------------
A|------------------------------------------
E|------------------------------------------

I hope that helps. There's a slight change in the last "two".


Mingi_Jammer - 2007-02-19

Well, all of them were great! I heard the song on Youtube
and I think the intro for guitar 1 is more like this actually:

e|-----11------11------10------11------11----
B|--11------11------11----11------11------11-
G|8-------8-------8----------8-------8-------
D|-------------------------------------------
A|-------------------------------------------
E|-------------------------------------------

e|------11------11------10------11------11---
B|---11------11------11----11------11------11
G|-------------------------------------------
D|10------10------10----------10------10-----
A|-------------------------------------------
E|-------------------------------------------

e|-----11------11------10------11------11----
B|--11------11------11----11------11------11-
G|-------------------------------------------
D|8-------8-------8----------8-------8-------
A|-------------------------------------------
E|-------------------------------------------


e|-----11------11------10------11------11----
B|--11------11------11----11------11------11-
G|-------------------------------------------
D|6-------6-------6----------6-------6-------
A|-------------------------------------------
E|-------------------------------------------


OK then! Please comment and e-mail at andg54@hotmail.com
Rock On!


Add a comment/correction

Complimentary Christian Ringtones
Dadamobile and CGR have teamed up to bring your favorite Christian artists right to your phone. Sign up today and get 10 complementary ringtones!
Tab Country
Did you know CGR has a sister site w/ country guitar tabs? Well we do! Its called Tab Country. It has a great archive with a lot of country tabs.
Rockin Tabs
Are you looking for a site that has rock guitar tabs? Then Rockintabs.com is the place for you. It is a budding site with many rock guitar tabs. Submit your tab today.
Tab Gallery
Tab Gallery has a compilation of christian, rock, and country tabs all in one place. Come visit us.