Guitar Tabs
song title    band name

Join Us Today!

Don't strum alone...
be a part of the largest online Christian music community. Browse thousands of guitar tabs and chat w/ musicians like yourself.


It's Free!

This tab has been rated a 3.00 out of 5 for accuracy. (1 vote)Sorry, but you must be logged in to rate this tab.
Click here to log-in, or you can click here to register.
(Registration is free)

All songs owned by corresponding publishing company. If you make copies of any song on this website, be sure to report your usage to CCLI.
Submitted by: ErockVillage

Song: Wake Me Up On Time
Artist: OC Supertones
Album: Revenge of the OC Supertones

Intro:
  D    D#  F  C   D      C   A#                                           D
--------------------------------------------------                       ---
--------------------------------------------------                       ---
--7-----8--10--5---7-----5----3-------------------                       -7-
--7-----8--10--5---7-----5----3-------------------                       -7-
--5-----6--8---3---5-----3----1-------------------                       -5-
--------------------------------------------------  Repeat 4X  and on D  ---


Verse:
use ska chords with the ska rythm, hit on the upbeats, playing:
   D       C#m
---5--------4-----
---7--------5-----
---7--------6-----
------------------
------------------
------------------  and go into  A and G for the 

Pre-Chorus:
Palm muted:
 A   G 

Chorus:
     D      A    D    A       A     C#   D
---------------------------------------------------------------
---------------------------------------------------------------
----7-7---------7-7---------------6-6--7-7---------------------
----7-7----7-7--7-7--7-7-----7-7--6-6--7-7---------------------
----5-5----7-7--5-5--7-7-----7-7--4-4--5-5---------------------
-----------5-5-------5-5-----5-5-------------------------------


The end is the first part of the intro


So thats the song.  im pretty sure thats right but if anyone finds a correction
feel free to post it.  Thanks.  
-Erock
selectsoda@msn.com

Comments about this tab

niceguy - 2005-03-05

does anybody know how to play that one fast guitar part for transmission


Add a comment/correction

Complimentary Christian Ringtones
Dadamobile and CGR have teamed up to bring your favorite Christian artists right to your phone. Sign up today and get 10 complementary ringtones!
Tab Country
Did you know CGR has a sister site w/ country guitar tabs? Well we do! Its called Tab Country. It has a great archive with a lot of country tabs.
Rockin Tabs
Are you looking for a site that has rock guitar tabs? Then Rockintabs.com is the place for you. It is a budding site with many rock guitar tabs. Submit your tab today.
Tab Gallery
Tab Gallery has a compilation of christian, rock, and country tabs all in one place. Come visit us.